  0
SECTION
  2
HEADER
  9
$ACADVER
  1
AC1015
  9
$ACADMAINTVER
 70
    10
  9
$DWGCODEPAGE
  3
ANSI_932
  9
$INSBASE
 10
0.0
 20
0.0
 30
0.0
  9
$EXTMIN
 10
4999583.756980622
 20
989799992.8060759
 30
0.0
  9
$EXTMAX
 10
5000055.213146828
 20
989800283.6457433
 30
0.0
  9
$LIMMIN
 10
0.0
 20
0.0
  9
$LIMMAX
 10
1000000000.0
 20
1000000000.0
  9
$ORTHOMODE
 70
     1
  9
$REGENMODE
 70
     1
  9
$FILLMODE
 70
     1
  9
$QTEXTMODE
 70
     0
  9
$MIRRTEXT
 70
     0
  9
$LTSCALE
 40
1.0
  9
$ATTMODE
 70
     2
  9
$TEXTSIZE
 40
3500.0
  9
$TRACEWID
 40
1.0
  9
$TEXTSTYLE
  7
STANDARD
  9
$CLAYER
  8
1
  9
$CELTYPE
  6
Continuous
  9
$CECOLOR
 62
     7
  9
$CELTSCALE
 40
1.0
  9
$DISPSILH
 70
     0
  9
$DIMSCALE
 40
1.0
  9
$DIMASZ
 40
50.0
  9
$DIMEXO
 40
0.0
  9
$DIMDLI
 40
0.0
  9
$DIMRND
 40
0.0
  9
$DIMDLE
 40
0.0
  9
$DIMEXE
 40
0.0
  9
$DIMTP
 40
0.0
  9
$DIMTM
 40
0.0
  9
$DIMTXT
 40
50.0
  9
$DIMCEN
 40
0.09
  9
$DIMTSZ
 40
0.0
  9
$DIMTOL
 70
     0
  9
$DIMLIM
 70
     0
  9
$DIMTIH
 70
     1
  9
$DIMTOH
 70
     1
  9
$DIMSE1
 70
     1
  9
$DIMSE2
 70
     1
  9
$DIMTAD
 70
     0
  9
$DIMZIN
 70
     0
  9
$DIMBLK
  1

  9
$DIMASO
 70
     1
  9
$DIMSHO
 70
     1
  9
$DIMPOST
  1

  9
$DIMAPOST
  1

  9
$DIMALT
 70
     0
  9
$DIMALTD
 70
     2
  9
$DIMALTF
 40
25.4
  9
$DIMLFAC
 40
1.0
  9
$DIMTOFL
 70
     0
  9
$DIMTVP
 40
0.0
  9
$DIMTIX
 70
     0
  9
$DIMSOXD
 70
     0
  9
$DIMSAH
 70
     0
  9
$DIMBLK1
  1

  9
$DIMBLK2
  1

  9
$DIMSTYLE
  2
Standard
  9
$DIMCLRD
 70
     0
  9
$DIMCLRE
 70
     0
  9
$DIMCLRT
 70
     0
  9
$DIMTFAC
 40
1.0
  9
$DIMGAP
 40
0.09
  9
$DIMJUST
 70
     0
  9
$DIMSD1
 70
     0
  9
$DIMSD2
 70
     0
  9
$DIMTOLJ
 70
     1
  9
$DIMTZIN
 70
     0
  9
$DIMALTZ
 70
     0
  9
$DIMALTTZ
 70
     0
  9
$DIMUPT
 70
     0
  9
$DIMDEC
 70
     4
  9
$DIMTDEC
 70
     4
  9
$DIMALTU
 70
     2
  9
$DIMALTTD
 70
     2
  9
$DIMTXSTY
  7
STANDARD
  9
$DIMAUNIT
 70
     0
  9
$DIMADEC
 70
     0
  9
$DIMALTRND
 40
0.0
  9
$DIMAZIN
 70
     0
  9
$DIMDSEP
 70
    46
  9
$DIMATFIT
 70
     3
  9
$DIMFRAC
 70
     0
  9
$DIMLDRBLK
  1

  9
$DIMLUNIT
 70
     2
  9
$DIMLWD
 70
    -2
  9
$DIMLWE
 70
    -2
  9
$DIMTMOVE
 70
     0
  9
$LUNITS
 70
     2
  9
$LUPREC
 70
     4
  9
$SKETCHINC
 40
0.1
  9
$FILLETRAD
 40
0.0
  9
$AUNITS
 70
     0
  9
$AUPREC
 70
     0
  9
$MENU
  1
acad
  9
$ELEVATION
 40
0.0
  9
$PELEVATION
 40
0.0
  9
$THICKNESS
 40
0.0
  9
$LIMCHECK
 70
     0
  9
$CHAMFERA
 40
0.0
  9
$CHAMFERB
 40
0.0
  9
$CHAMFERC
 40
0.0
  9
$CHAMFERD
 40
0.0
  9
$SKPOLY
 70
     0
  9
$TDCREATE
 40
2454336.725106701
  9
$TDUCREATE
 40
2454336.350106701
  9
$TDUPDATE
 40
2454336.756107141
  9
$TDUUPDATE
 40
2454336.381107141
  9
$TDINDWG
 40
0.0292834838
  9
$TDUSRTIMER
 40
0.0000001852
  9
$USRTIMER
 70
     0
  9
$ANGBASE
 50
0.0
  9
$ANGDIR
 70
     0
  9
$PDMODE
 70
     1
  9
$PDSIZE
 40
0.0
  9
$PLINEWID
 40
0.0
  9
$SPLFRAME
 70
     0
  9
$SPLINETYPE
 70
     6
  9
$SPLINESEGS
 70
     5
  9
$HANDSEED
  5
16C8
  9
$SURFTAB1
 70
     6
  9
$SURFTAB2
 70
     6
  9
$SURFTYPE
 70
     6
  9
$SURFU
 70
     6
  9
$SURFV
 70
     6
  9
$UCSBASE
  2

  9
$UCSNAME
  2

  9
$UCSORG
 10
0.0
 20
0.0
 30
0.0
  9
$UCSXDIR
 10
1.0
 20
0.0
 30
0.0
  9
$UCSYDIR
 10
0.0
 20
1.0
 30
0.0
  9
$UCSORTHOREF
  2

  9
$UCSORTHOVIEW
 70
     0
  9
$UCSORGTOP
 10
0.0
 20
0.0
 30
0.0
  9
$UCSORGBOTTOM
 10
0.0
 20
0.0
 30
0.0
  9
$UCSORGLEFT
 10
0.0
 20
0.0
 30
0.0
  9
$UCSORGRIGHT
 10
0.0
 20
0.0
 30
0.0
  9
$UCSORGFRONT
 10
0.0
 20
0.0
 30
0.0
  9
$UCSORGBACK
 10
0.0
 20
0.0
 30
0.0
  9
$PUCSBASE
  2

  9
$PUCSNAME
  2

  9
$PUCSORG
 10
0.0
 20
0.0
 30
0.0
  9
$PUCSXDIR
 10
1.0
 20
0.0
 30
0.0
  9
$PUCSYDIR
 10
0.0
 20
1.0
 30
0.0
  9
$PUCSORTHOREF
  2

  9
$PUCSORTHOVIEW
 70
     0
  9
$PUCSORGTOP
 10
0.0
 20
0.0
 30
0.0
  9
$PUCSORGBOTTOM
 10
0.0
 20
0.0
 30
0.0
  9
$PUCSORGLEFT
 10
0.0
 20
0.0
 30
0.0
  9
$PUCSORGRIGHT
 10
0.0
 20
0.0
 30
0.0
  9
$PUCSORGFRONT
 10
0.0
 20
0.0
 30
0.0
  9
$PUCSORGBACK
 10
0.0
 20
0.0
 30
0.0
  9
$USERI1
 70
     0
  9
$USERI2
 70
     0
  9
$USERI3
 70
     0
  9
$USERI4
 70
     0
  9
$USERI5
 70
     0
  9
$USERR1
 40
0.0
  9
$USERR2
 40
0.0
  9
$USERR3
 40
0.0
  9
$USERR4
 40
0.0
  9
$USERR5
 40
0.0
  9
$WORLDVIEW
 70
     1
  9
$SHADEDGE
 70
     3
  9
$SHADEDIF
 70
    70
  9
$TILEMODE
 70
     1
  9
$MAXACTVP
 70
    64
  9
$PINSBASE
 10
0.0
 20
0.0
 30
0.0
  9
$PLIMCHECK
 70
     0
  9
$PEXTMIN
 10
1.000000000000000E+20
 20
1.000000000000000E+20
 30
1.000000000000000E+20
  9
$PEXTMAX
 10
-1.000000000000000E+20
 20
-1.000000000000000E+20
 30
-1.000000000000000E+20
  9
$PLIMMIN
 10
0.0
 20
0.0
  9
$PLIMMAX
 10
12.0
 20
9.0
  9
$UNITMODE
 70
     0
  9
$VISRETAIN
 70
     1
  9
$PLINEGEN
 70
     0
  9
$PSLTSCALE
 70
     1
  9
$TREEDEPTH
 70
  3020
  9
$CMLSTYLE
  2
Standard
  9
$CMLJUST
 70
     0
  9
$CMLSCALE
 40
1.0
  9
$PROXYGRAPHICS
 70
     1
  9
$MEASUREMENT
 70
     0
  9
$CELWEIGHT
370
    -1
  9
$ENDCAPS
280
     0
  9
$JOINSTYLE
280
     0
  9
$LWDISPLAY
290
     0
  9
$INSUNITS
 70
     0
  9
$HYPERLINKBASE
  1

  9
$STYLESHEET
  1

  9
$XEDIT
290
     1
  9
$CEPSNTYPE
380
     0
  9
$PSTYLEMODE
290
     1
  9
$FINGERPRINTGUID
  2
{B243A81B-B7D9-409C-8DB4-A2C49956D3C5}
  9
$VERSIONGUID
  2
{7DFDF399-DCEB-4C6C-BDEA-6B7AC7AF94B2}
  9
$EXTNAMES
290
     1
  9
$PSVPSCALE
 40
0.0
  9
$OLESTARTUP
290
     0
  0
ENDSEC
  0
SECTION
  2
CLASSES
  0
CLASS
  1
ACDBDICTIONARYWDFLT
  2
AcDbDictionaryWithDefault
  3
AutoCAD 2000
 90
        0
280
     0
281
     0
  0
CLASS
  1
ACDBPLACEHOLDER
  2
AcDbPlaceHolder
  3
AutoCAD 2000
 90
        0
280
     0
281
     0
  0
CLASS
  1
LAYOUT
  2
AcDbLayout
  3
AutoCAD 2000
 90
        0
280
     0
281
     0
  0
ENDSEC
  0
SECTION
  2
TABLES
  0
TABLE
  2
VPORT
  5
8
330
0
100
AcDbSymbolTable
 70
     3
  0
VPORT
  5
16C7
330
8
100
AcDbSymbolTableRecord
100
AcDbViewportTableRecord
  2
*Active
 70
     0
 10
0.0
 20
0.0
 11
1.0
 21
1.0
 12
4999810.954080385
 22
989800137.4395168
 13
0.0
 23
0.0
 14
50.0
 24
50.0
 15
50.0
 25
50.0
 16
0.0
 26
0.0
 36
1.0
 17
0.0
 27
0.0
 37
0.0
 40
352.3032827377317
 41
1.510025062656641
 42
50.0
 43
0.0
 44
0.0
 50
0.0
 51
0.0
 71
     0
 72
   100
 73
     1
 74
     1
 75
     0
 76
     0
 77
     0
 78
     0
281
     0
 65
     1
110
0.0
120
0.0
130
0.0
111
1.0
121
0.0
131
0.0
112
0.0
122
1.0
132
0.0
 79
     0
146
0.0
  0
ENDTAB
  0
TABLE
  2
LTYPE
  5
5
330
0
100
AcDbSymbolTable
 70
     8
  0
LTYPE
  5
13
330
5
100
AcDbSymbolTableRecord
100
AcDbLinetypeTableRecord
  2
ByBlock
 70
     0
  3

 72
    65
 73
     0
 40
0.0
  0
LTYPE
  5
14
330
5
100
AcDbSymbolTableRecord
100
AcDbLinetypeTableRecord
  2
ByLayer
 70
     0
  3

 72
    65
 73
     0
 40
0.0
  0
LTYPE
  5
15
330
5
100
AcDbSymbolTableRecord
100
AcDbLinetypeTableRecord
  2
Continuous
 70
     0
  3
Solid line
 72
    65
 73
     0
 40
0.0
  0
LTYPE
  5
24
330
5
100
AcDbSymbolTableRecord
100
AcDbLinetypeTableRecord
  2
C6CONTINUOUS
 70
     0
  3
----------------
 72
    65
 73
     0
 40
0.0
  0
LTYPE
  5
25
330
5
100
AcDbSymbolTableRecord
100
AcDbLinetypeTableRecord
  2
C6DOT
 70
     0
  3
- - - - - - - - 
 72
    65
 73
     2
 40
16.0
 49
8.0
 74
     0
 49
-8.0
 74
     0
  0
LTYPE
  5
26
330
5
100
AcDbSymbolTableRecord
100
AcDbLinetypeTableRecord
  2
C6DASHED
 70
     0
  3
--  --  --  --
 72
    65
 73
     2
 40
32.0
 49
16.0
 74
     0
 49
-16.0
 74
     0
  0
LTYPE
  5
27
330
5
100
AcDbSymbolTableRecord
100
AcDbLinetypeTableRecord
  2
C6DASHDOT
 70
     0
  3
---- -- ---- --
 72
    65
 73
     4
 40
64.0
 49
32.0
 74
     0
 49
-8.0
 74
     0
 49
16.0
 74
     0
 49
-8.0
 74
     0
  0
LTYPE
  5
28
330
5
100
AcDbSymbolTableRecord
100
AcDbLinetypeTableRecord
  2
C6DIVIDE
 70
     0
  3
--- - - --- - - 
 72
    65
 73
     6
 40
64.0
 49
24.0
 74
     0
 49
-8.0
 74
     0
 49
8.0
 74
     0
 49
-8.0
 74
     0
 49
8.0
 74
     0
 49
-8.0
 74
     0
  0
LTYPE
  5
16B0
330
5
100
AcDbSymbolTableRecord
100
AcDbLinetypeTableRecord
  2
CENTER
 70
     0
  3
Center ____ _ ____ _ ____ _ ____ _ ____ _ ____
 72
    65
 73
     4
 40
2.0
 49
1.25
 74
     0
 49
-0.25
 74
     0
 49
0.25
 74
     0
 49
-0.25
 74
     0
  0
LTYPE
  5
16B1
330
5
100
AcDbSymbolTableRecord
100
AcDbLinetypeTableRecord
  2
CENTERX2
 70
     0
  3
Center (2x) ________  __  ________  __  _____
 72
    65
 73
     4
 40
4.0
 49
2.5
 74
     0
 49
-0.5
 74
     0
 49
0.5
 74
     0
 49
-0.5
 74
     0
  0
ENDTAB
  0
TABLE
  2
LAYER
  5
2
330
0
100
AcDbSymbolTable
 70
    66
  0
LAYER
  5
10
330
2
100
AcDbSymbolTableRecord
100
AcDbLayerTableRecord
  2
0
 70
     0
 62
     7
  6
C6CONTINUOUS
370
    -3
390
F
  0
LAYER
  5
22
330
2
100
AcDbSymbolTableRecord
100
AcDbLayerTableRecord
  2
1
 70
     0
 62
     7
  6
C6CONTINUOUS
370
    -3
390
F
  0
LAYER
  5
29
330
2
100
AcDbSymbolTableRecord
100
AcDbLayerTableRecord
  2
2
 70
     0
 62
     7
  6
C6CONTINUOUS
370
    -3
390
F
  0
LAYER
  5
2A
330
2
100
AcDbSymbolTableRecord
100
AcDbLayerTableRecord
  2
3
 70
     0
 62
     7
  6
C6CONTINUOUS
370
    -3
390
F
  0
LAYER
  5
2B
330
2
100
AcDbSymbolTableRecord
100
AcDbLayerTableRecord
  2
4
 70
     0
 62
     7
  6
C6CONTINUOUS
370
    -3
390
F
  0
LAYER
  5
2C
330
2
100
AcDbSymbolTableRecord
100
AcDbLayerTableRecord
  2
5
 70
     0
 62
     7
  6
C6CONTINUOUS
370
    -3
390
F
  0
LAYER
  5
2D
330
2
100
AcDbSymbolTableRecord
100
AcDbLayerTableRecord
  2
6
 70
     0
 62
     7
  6
C6CONTINUOUS
370
    -3
390
F
  0
LAYER
  5
2E
330
2
100
AcDbSymbolTableRecord
100
AcDbLayerTableRecord
  2
7
 70
     0
 62
     7
  6
C6CONTINUOUS
370
    -3
390
F
  0
LAYER
  5
2F
330
2
100
AcDbSymbolTableRecord
100
AcDbLayerTableRecord
  2
8
 70
     0
 62
     7
  6
C6CONTINUOUS
370
    -3
390
F
  0
LAYER
  5
30
330
2
100
AcDbSymbolTableRecord
100
AcDbLayerTableRecord
  2
9
 70
     0
 62
     7
  6
C6CONTINUOUS
370
    -3
390
F
  0
LAYER
  5
31
330
2
100
AcDbSymbolTableRecord
100
AcDbLayerTableRecord
  2
10
 70
     0
 62
     7
  6
C6CONTINUOUS
370
    -3
390
F
  0
LAYER
  5
32
330
2
100
AcDbSymbolTableRecord
100
AcDbLayerTableRecord
  2
11
 70
     0
 62
     7
  6
C6CONTINUOUS
370
    -3
390
F
  0
LAYER
  5
33
330
2
100
AcDbSymbolTableRecord
100
AcDbLayerTableRecord
  2
12
 70
     0
 62
     7
  6
C6CONTINUOUS
370
    -3
390
F
  0
LAYER
  5
34
330
2
100
AcDbSymbolTableRecord
100
AcDbLayerTableRecord
  2
13
 70
     0
 62
     7
  6
C6CONTINUOUS
370
    -3
390
F
  0
LAYER
  5
35
330
2
100
AcDbSymbolTableRecord
100
AcDbLayerTableRecord
  2
14
 70
     0
 62
     7
  6
C6CONTINUOUS
370
    -3
390
F
  0
LAYER
  5
36
330
2
100
AcDbSymbolTableRecord
100
AcDbLayerTableRecord
  2
15
 70
     0
 62
     7
  6
C6CONTINUOUS
370
    -3
390
F
  0
LAYER
  5
37
330
2
100
AcDbSymbolTableRecord
100
AcDbLayerTableRecord
  2
16
 70
     0
 62
     7
  6
C6CONTINUOUS
370
    -3
390
F
  0
LAYER
  5
38
330
2
100
AcDbSymbolTableRecord
100
AcDbLayerTableRecord
  2
17
 70
     0
 62
     7
  6
C6CONTINUOUS
370
    -3
390
F
  0
LAYER
  5
39
330
2
100
AcDbSymbolTableRecord
100
AcDbLayerTableRecord
  2
18
 70
     0
 62
     7
  6
C6CONTINUOUS
370
    -3
390
F
  0
LAYER
  5
3A
330
2
100
AcDbSymbolTableRecord
100
AcDbLayerTableRecord
  2
19
 70
     0
 62
     7
  6
C6CONTINUOUS
370
    -3
390
F
  0
LAYER
  5
3B
330
2
100
AcDbSymbolTableRecord
100
AcDbLayerTableRecord
  2
20
 70
     0
 62
     7
  6
C6CONTINUOUS
370
    -3
390
F
  0
LAYER
  5
3C
330
2
100
AcDbSymbolTableRecord
100
AcDbLayerTableRecord
  2
21
 70
     0
 62
     7
  6
C6CONTINUOUS
370
    -3
390
F
  0
LAYER
  5
3D
330
2
100
AcDbSymbolTableRecord
100
AcDbLayerTableRecord
  2
22
 70
     0
 62
     7
  6
C6CONTINUOUS
370
    -3
390
F
  0
LAYER
  5
3E
330
2
100
AcDbSymbolTableRecord
100
AcDbLayerTableRecord
  2
23
 70
     0
 62
     7
  6
C6CONTINUOUS
370
    -3
390
F
  0
LAYER
  5
3F
330
2
100
AcDbSymbolTableRecord
100
AcDbLayerTableRecord
  2
24
 70
     0
 62
     7
  6
C6CONTINUOUS
370
    -3
390
F
  0
LAYER
  5
40
330
2
100
AcDbSymbolTableRecord
100
AcDbLayerTableRecord
  2
25
 70
     0
 62
     7
  6
C6CONTINUOUS
370
    -3
390
F
  0
LAYER
  5
41
330
2
100
AcDbSymbolTableRecord
100
AcDbLayerTableRecord
  2
26
 70
     0
 62
     7
  6
C6CONTINUOUS
370
    -3
390
F
  0
LAYER
  5
42
330
2
100
AcDbSymbolTableRecord
100
AcDbLayerTableRecord
  2
27
 70
     0
 62
     7
  6
C6CONTINUOUS
370
    -3
390
F
  0
LAYER
  5
43
330
2
100
AcDbSymbolTableRecord
100
AcDbLayerTableRecord
  2
28
 70
     0
 62
     7
  6
C6CONTINUOUS
370
    -3
390
F
  0
LAYER
  5
44
330
2
100
AcDbSymbolTableRecord
100
AcDbLayerTableRecord
  2
29
 70
     0
 62
     7
  6
C6CONTINUOUS
370
    -3
390
F
  0
LAYER
  5
45
330
2
100
AcDbSymbolTableRecord
100
AcDbLayerTableRecord
  2
30
 70
     0
 62
     7
  6
C6CONTINUOUS
370
    -3
390
F
  0
LAYER
  5
46
330
2
100
AcDbSymbolTableRecord
100
AcDbLayerTableRecord
  2
31
 70
     0
 62
     7
  6
C6CONTINUOUS
370
    -3
390
F
  0
LAYER
  5
47
330
2
100
AcDbSymbolTableRecord
100
AcDbLayerTableRecord
  2
32
 70
     0
 62
     7
  6
C6CONTINUOUS
370
    -3
390
F
  0
LAYER
  5
48
330
2
100
AcDbSymbolTableRecord
100
AcDbLayerTableRecord
  2
33
 70
     0
 62
     7
  6
C6CONTINUOUS
370
    -3
390
F
  0
LAYER
  5
49
330
2
100
AcDbSymbolTableRecord
100
AcDbLayerTableRecord
  2
34
 70
     0
 62
     7
  6
C6CONTINUOUS
370
    -3
390
F
  0
LAYER
  5
4A
330
2
100
AcDbSymbolTableRecord
100
AcDbLayerTableRecord
  2
35
 70
     0
 62
     7
  6
C6CONTINUOUS
370
    -3
390
F
  0
LAYER
  5
4B
330
2
100
AcDbSymbolTableRecord
100
AcDbLayerTableRecord
  2
36
 70
     0
 62
     7
  6
C6CONTINUOUS
370
    -3
390
F
  0
LAYER
  5
4C
330
2
100
AcDbSymbolTableRecord
100
AcDbLayerTableRecord
  2
37
 70
     0
 62
     7
  6
C6CONTINUOUS
370
    -3
390
F
  0
LAYER
  5
4D
330
2
100
AcDbSymbolTableRecord
100
AcDbLayerTableRecord
  2
38
 70
     0
 62
     7
  6
C6CONTINUOUS
370
    -3
390
F
  0
LAYER
  5
4E
330
2
100
AcDbSymbolTableRecord
100
AcDbLayerTableRecord
  2
39
 70
     0
 62
     7
  6
C6CONTINUOUS
370
    -3
390
F
  0
LAYER
  5
4F
330
2
100
AcDbSymbolTableRecord
100
AcDbLayerTableRecord
  2
40
 70
     0
 62
     7
  6
C6CONTINUOUS
370
    -3
390
F
  0
LAYER
  5
50
330
2
100
AcDbSymbolTableRecord
100
AcDbLayerTableRecord
  2
41
 70
     0
 62
     7
  6
C6CONTINUOUS
370
    -3
390
F
  0
LAYER
  5
51
330
2
100
AcDbSymbolTableRecord
100
AcDbLayerTableRecord
  2
42
 70
     0
 62
     7
  6
C6CONTINUOUS
370
    -3
390
F
  0
LAYER
  5
52
330
2
100
AcDbSymbolTableRecord
100
AcDbLayerTableRecord
  2
43
 70
     0
 62
     7
  6
C6CONTINUOUS
370
    -3
390
F
  0
LAYER
  5
53
330
2
100
AcDbSymbolTableRecord
100
AcDbLayerTableRecord
  2
44
 70
     0
 62
     7
  6
C6CONTINUOUS
370
    -3
390
F
  0
LAYER
  5
54
330
2
100
AcDbSymbolTableRecord
100
AcDbLayerTableRecord
  2
45
 70
     0
 62
     7
  6
C6CONTINUOUS
370
    -3
390
F
  0
LAYER
  5
55
330
2
100
AcDbSymbolTableRecord
100
AcDbLayerTableRecord
  2
46
 70
     0
 62
     7
  6
C6CONTINUOUS
370
    -3
390
F
  0
LAYER
  5
56
330
2
100
AcDbSymbolTableRecord
100
AcDbLayerTableRecord
  2
47
 70
     0
 62
     7
  6
C6CONTINUOUS
370
    -3
390
F
  0
LAYER
  5
57
330
2
100
AcDbSymbolTableRecord
100
AcDbLayerTableRecord
  2
48
 70
     0
 62
     7
  6
C6CONTINUOUS
370
    -3
390
F
  0
LAYER
  5
58
330
2
100
AcDbSymbolTableRecord
100
AcDbLayerTableRecord
  2
49
 70
     0
 62
     7
  6
C6CONTINUOUS
370
    -3
390
F
  0
LAYER
  5
59
330
2
100
AcDbSymbolTableRecord
100
AcDbLayerTableRecord
  2
50
 70
     0
 62
     7
  6
C6CONTINUOUS
370
    -3
390
F
  0
LAYER
  5
5A
330
2
100
AcDbSymbolTableRecord
100
AcDbLayerTableRecord
  2
51
 70
     0
 62
     7
  6
C6CONTINUOUS
370
    -3
390
F
  0
LAYER
  5
5B
330
2
100
AcDbSymbolTableRecord
100
AcDbLayerTableRecord
  2
52
 70
     0
 62
     7
  6
C6CONTINUOUS
370
    -3
390
F
  0
LAYER
  5
5C
330
2
100
AcDbSymbolTableRecord
100
AcDbLayerTableRecord
  2
53
 70
     0
 62
     7
  6
C6CONTINUOUS
370
    -3
390
F
  0
LAYER
  5
5D
330
2
100
AcDbSymbolTableRecord
100
AcDbLayerTableRecord
  2
54
 70
     0
 62
     7
  6
C6CONTINUOUS
370
    -3
390
F
  0
LAYER
  5
5E
330
2
100
AcDbSymbolTableRecord
100
AcDbLayerTableRecord
  2
55
 70
     0
 62
     7
  6
C6CONTINUOUS
370
    -3
390
F
  0
LAYER
  5
5F
330
2
100
AcDbSymbolTableRecord
100
AcDbLayerTableRecord
  2
56
 70
     0
 62
     7
  6
C6CONTINUOUS
370
    -3
390
F
  0
LAYER
  5
60
330
2
100
AcDbSymbolTableRecord
100
AcDbLayerTableRecord
  2
57
 70
     0
 62
     7
  6
C6CONTINUOUS
370
    -3
390
F
  0
LAYER
  5
61
330
2
100
AcDbSymbolTableRecord
100
AcDbLayerTableRecord
  2
58
 70
     0
 62
     7
  6
C6CONTINUOUS
370
    -3
390
F
  0
LAYER
  5
62
330
2
100
AcDbSymbolTableRecord
100
AcDbLayerTableRecord
  2
59
 70
     0
 62
     7
  6
C6CONTINUOUS
370
    -3
390
F
  0
LAYER
  5
63
330
2
100
AcDbSymbolTableRecord
100
AcDbLayerTableRecord
  2
60
 70
     0
 62
     7
  6
C6CONTINUOUS
370
    -3
390
F
  0
LAYER
  5
64
330
2
100
AcDbSymbolTableRecord
100
AcDbLayerTableRecord
  2
61
 70
     0
 62
     7
  6
C6CONTINUOUS
370
    -3
390
F
  0
LAYER
  5
65
330
2
100
AcDbSymbolTableRecord
100
AcDbLayerTableRecord
  2
62
 70
     0
 62
     7
  6
C6CONTINUOUS
370
    -3
390
F
  0
LAYER
  5
66
330
2
100
AcDbSymbolTableRecord
100
AcDbLayerTableRecord
  2
63
 70
     0
 62
     7
  6
C6CONTINUOUS
370
    -3
390
F
  0
LAYER
  5
1676
330
2
100
AcDbSymbolTableRecord
100
AcDbLayerTableRecord
  2
寸法
 70
     0
 62
     7
  6
Continuous
370
    -3
390
F
  0
LAYER
  5
16A6
330
2
100
AcDbSymbolTableRecord
100
AcDbLayerTableRecord
  2
外形
 70
     0
 62
     7
  6
Continuous
370
    -3
390
F
  0
ENDTAB
  0
TABLE
  2
STYLE
  5
3
330
0
100
AcDbSymbolTable
 70
     3
  0
STYLE
  5
11
330
3
100
AcDbSymbolTableRecord
100
AcDbTextStyleTableRecord
  2
STANDARD
 70
     0
 40
0.0
 41
1.0
 50
0.0
 71
     0
 42
3500.0
  3
txt
  4

  0
STYLE
  5
67
330
3
100
AcDbSymbolTableRecord
100
AcDbTextStyleTableRecord
  2
BIGFONT
 70
     0
 40
0.0
 41
1.0
 50
0.0
 71
     0
 42
3041.381265
  3

  4
bigfont
  0
STYLE
  5
16AF
330
3
100
AcDbSymbolTableRecord
100
AcDbTextStyleTableRecord
  2

 70
     1
 40
0.0
 41
1.0
 50
0.0
 71
     0
 42
50.0
  3
ltypeshp.shx
  4

  0
ENDTAB
  0
TABLE
  2
VIEW
  5
6
330
0
100
AcDbSymbolTable
 70
     0
  0
ENDTAB
  0
TABLE
  2
UCS
  5
7
330
0
100
AcDbSymbolTable
 70
     0
  0
ENDTAB
  0
TABLE
  2
APPID
  5
9
330
0
100
AcDbSymbolTable
 70
     1
  0
APPID
  5
12
330
9
100
AcDbSymbolTableRecord
100
AcDbRegAppTableRecord
  2
ACAD
 70
     0
  0
ENDTAB
  0
TABLE
  2
DIMSTYLE
  5
A
330
0
100
AcDbSymbolTable
 70
     2
100
AcDbDimStyleTable
 71
     1
340
1672
  0
DIMSTYLE
105
1672
330
A
100
AcDbSymbolTableRecord
100
AcDbDimStyleTableRecord
  2
Standard
 70
     0
340
11
  0
DIMSTYLE
105
1677
330
A
100
AcDbSymbolTableRecord
100
AcDbDimStyleTableRecord
  2
ISO-25
 70
     0
 40
7.0
 41
1.0
 42
0.2
 43
3.75
 44
0.5
 73
     0
 74
     0
 77
     1
 78
     8
140
0.7
141
2.5
143
0.03937007874016
147
0.2
171
     3
172
     1
271
     2
272
     2
274
     3
283
     0
284
     8
340
11
  0
ENDTAB
  0
TABLE
  2
BLOCK_RECORD
  5
1
330
0
100
AcDbSymbolTable
 70
     2
  0
BLOCK_RECORD
  5
1E
330
1
100
AcDbSymbolTableRecord
100
AcDbBlockTableRecord
  2
*Model_Space
340
21
  0
BLOCK_RECORD
  5
1A
330
1
100
AcDbSymbolTableRecord
100
AcDbBlockTableRecord
  2
*Paper_Space
340
1D
  0
BLOCK_RECORD
  5
1699
330
1
100
AcDbSymbolTableRecord
100
AcDbBlockTableRecord
  2
_Closed
340
0
  0
BLOCK_RECORD
  5
16A0
330
1
100
AcDbSymbolTableRecord
100
AcDbBlockTableRecord
  2
_Open
340
0
  0
ENDTAB
  0
ENDSEC
  0
SECTION
  2
BLOCKS
  0
BLOCK
  5
1F
330
1E
100
AcDbEntity
  8
0
100
AcDbBlockBegin
  2
*Model_Space
 70
     0
 10
0.0
 20
0.0
 30
0.0
  3
*Model_Space
  1

  0
ENDBLK
  5
20
330
1E
100
AcDbEntity
  8
0
100
AcDbBlockEnd
  0
BLOCK
  5
1B
330
1A
100
AcDbEntity
 67
     1
  8
0
100
AcDbBlockBegin
  2
*Paper_Space
 70
     0
 10
0.0
 20
0.0
 30
0.0
  3
*Paper_Space
  1

  0
ENDBLK
  5
1C
330
1A
100
AcDbEntity
 67
     1
  8
0
100
AcDbBlockEnd
  0
BLOCK
  5
169E
330
1699
100
AcDbEntity
  8
0
 62
     7
100
AcDbBlockBegin
  2
_Closed
 70
     0
 10
0.0
 20
0.0
 30
0.0
  3
_Closed
  1

  0
LINE
  5
169A
330
1699
100
AcDbEntity
  8
0
  6
ByBlock
 62
     0
370
    -2
100
AcDbLine
 10
-1.0
 20
0.1666666666666666
 30
0.0
 11
0.0
 21
0.0
 31
0.0
  0
LINE
  5
169B
330
1699
100
AcDbEntity
  8
0
  6
ByBlock
 62
     0
370
    -2
100
AcDbLine
 10
0.0
 20
0.0
 30
0.0
 11
-1.0
 21
-0.1666666666666666
 31
0.0
  0
LINE
  5
169C
330
1699
100
AcDbEntity
  8
0
  6
ByBlock
 62
     0
370
    -2
100
AcDbLine
 10
-1.0
 20
0.1666666666666666
 30
0.0
 11
-1.0
 21
-0.1666666666666666
 31
0.0
  0
LINE
  5
169D
330
1699
100
AcDbEntity
  8
0
  6
ByBlock
 62
     0
370
    -2
100
AcDbLine
 10
0.0
 20
0.0
 30
0.0
 11
-1.0
 21
0.0
 31
0.0
  0
ENDBLK
  5
169F
330
1699
100
AcDbEntity
  8
0
 62
     7
100
AcDbBlockEnd
  0
BLOCK
  5
16A4
330
16A0
100
AcDbEntity
  8
0
 62
     7
100
AcDbBlockBegin
  2
_Open
 70
     0
 10
0.0
 20
0.0
 30
0.0
  3
_Open
  1

  0
LINE
  5
16A1
330
16A0
100
AcDbEntity
  8
0
  6
ByBlock
 62
     0
370
    -2
100
AcDbLine
 10
-1.0
 20
0.1666666666666666
 30
0.0
 11
0.0
 21
0.0
 31
0.0
  0
LINE
  5
16A2
330
16A0
100
AcDbEntity
  8
0
  6
ByBlock
 62
     0
370
    -2
100
AcDbLine
 10
-1.0
 20
-0.1666666666666666
 30
0.0
 11
0.0
 21
0.0
 31
0.0
  0
LINE
  5
16A3
330
16A0
100
AcDbEntity
  8
0
  6
ByBlock
 62
     0
370
    -2
100
AcDbLine
 10
0.0
 20
0.0
 30
0.0
 11
-1.0
 21
0.0
 31
0.0
  0
ENDBLK
  5
16A5
330
16A0
100
AcDbEntity
  8
0
 62
     7
100
AcDbBlockEnd
  0
ENDSEC
  0
SECTION
  2
ENTITIES
  0
LINE
  5
CC
330
1E
100
AcDbEntity
  8
0
  6
C6CONTINUOUS
 62
     7
100
AcDbLine
 10
4999710.514287376
 20
989800023.0349998
 30
0.0
 11
4999710.514144494
 21
989800100.842428
 31
0.0
  0
LINE
  5
CD
330
1E
100
AcDbEntity
  8
0
  6
C6CONTINUOUS
 62
     7
100
AcDbLine
 10
4999665.714287623
 20
989800023.0349998
 30
0.0
 11
4999665.714287623
 21
989800100.842428
 31
0.0
  0
LINE
  5
CE
330
1E
100
AcDbEntity
  8
0
  6
C6CONTINUOUS
 62
     7
100
AcDbLine
 10
4999743.114144203
 20
989800100.842428
 30
0.0
 11
4999633.114287743
 21
989800100.842428
 31
0.0
  0
LINE
  5
CF
330
1E
100
AcDbEntity
  8
0
  6
C6CONTINUOUS
 62
     7
100
AcDbLine
 10
4999633.614287776
 20
989800023.0352856
 30
0.0
 11
4999633.614287776
 21
989800100.842428
 31
0.0
  0
LINE
  5
D0
330
1E
100
AcDbEntity
  8
0
  6
C6CONTINUOUS
 62
     7
100
AcDbLine
 10
4999635.114287869
 20
989800023.0352856
 30
0.0
 11
4999635.114287869
 21
989800100.842428
 31
0.0
  0
LINE
  5
D1
330
1E
100
AcDbEntity
  8
0
  6
C6CONTINUOUS
 62
     7
100
AcDbLine
 10
4999635.614287728
 20
989800023.0352856
 30
0.0
 11
4999635.614287728
 21
989800100.842428
 31
0.0
  0
LINE
  5
D2
330
1E
100
AcDbEntity
  8
0
  6
C6CONTINUOUS
 62
     7
100
AcDbLine
 10
4999643.614287715
 20
989800023.0352856
 30
0.0
 11
4999643.614287715
 21
989800100.842428
 31
0.0
  0
LINE
  5
D3
330
1E
100
AcDbEntity
  8
0
  6
C6CONTINUOUS
 62
     7
100
AcDbLine
 10
4999645.61428767
 20
989800023.0352856
 30
0.0
 11
4999645.61428767
 21
989800100.842428
 31
0.0
  0
LINE
  5
D4
330
1E
100
AcDbEntity
  8
0
  6
C6CONTINUOUS
 62
     7
100
AcDbLine
 10
4999653.614287656
 20
989800023.0352856
 30
0.0
 11
4999653.614287656
 21
989800100.842428
 31
0.0
  0
LINE
  5
D5
330
1E
100
AcDbEntity
  8
0
  6
C6CONTINUOUS
 62
     7
100
AcDbLine
 10
4999655.614287608
 20
989800023.0352856
 30
0.0
 11
4999655.614287608
 21
989800100.842428
 31
0.0
  0
LINE
  5
D6
330
1E
100
AcDbEntity
  8
0
  6
C6CONTINUOUS
 62
     7
100
AcDbLine
 10
4999743.114287085
 20
989800023.0349998
 30
0.0
 11
4999633.114287743
 21
989800023.0352856
 31
0.0
  0
LINE
  5
D7
330
1E
100
AcDbEntity
  8
0
  6
C6CONTINUOUS
 62
     7
100
AcDbLine
 10
4999710.114287418
 20
989800032.9385713
 30
0.0
 11
4999710.114287418
 21
989800041.9385713
 31
0.0
  0
LINE
  5
D8
330
1E
100
AcDbEntity
  8
0
  6
C6CONTINUOUS
 62
     7
100
AcDbLine
 10
4999710.114287418
 20
989800041.9385713
 30
0.0
 11
4999711.11428731
 21
989800041.9385713
 31
0.0
  0
LINE
  5
D9
330
1E
100
AcDbEntity
  8
0
  6
C6CONTINUOUS
 62
     7
100
AcDbLine
 10
4999711.11428731
 20
989800041.9385713
 30
0.0
 11
4999711.11428731
 21
989800032.9385713
 31
0.0
  0
LINE
  5
DA
330
1E
100
AcDbEntity
  8
0
  6
C6CONTINUOUS
 62
     7
100
AcDbLine
 10
4999711.11428731
 20
989800032.9385713
 30
0.0
 11
4999710.114287418
 21
989800032.9385713
 31
0.0
  0
LINE
  5
DB
330
1E
100
AcDbEntity
  8
0
  6
C6CONTINUOUS
 62
     7
100
AcDbLine
 10
4999665.114287688
 20
989800032.9385713
 30
0.0
 11
4999665.114287688
 21
989800041.9385713
 31
0.0
  0
LINE
  5
DC
330
1E
100
AcDbEntity
  8
0
  6
C6CONTINUOUS
 62
     7
100
AcDbLine
 10
4999665.114287688
 20
989800041.9385713
 30
0.0
 11
4999666.11428758
 21
989800041.9385713
 31
0.0
  0
LINE
  5
DD
330
1E
100
AcDbEntity
  8
0
  6
C6CONTINUOUS
 62
     7
100
AcDbLine
 10
4999666.11428758
 20
989800041.9385713
 30
0.0
 11
4999666.11428758
 21
989800032.9385713
 31
0.0
  0
LINE
  5
DE
330
1E
100
AcDbEntity
  8
0
  6
C6CONTINUOUS
 62
     7
100
AcDbLine
 10
4999666.11428758
 20
989800032.9385713
 30
0.0
 11
4999665.114287688
 21
989800032.9385713
 31
0.0
  0
LINE
  5
DF
330
1E
100
AcDbEntity
  8
0
  6
C6CONTINUOUS
 62
     7
100
AcDbLine
 10
4999691.11428743
 20
989800025.4385713
 30
0.0
 11
4999691.11428743
 21
989800021.9385712
 31
0.0
  0
LINE
  5
E0
330
1E
100
AcDbEntity
  8
0
  6
C6CONTINUOUS
 62
     7
100
AcDbLine
 10
4999685.114287569
 20
989800024.9385713
 30
0.0
 11
4999685.114287569
 21
989800021.9385712
 31
0.0
  0
LINE
  5
E1
330
1E
100
AcDbEntity
  8
0
  6
C6CONTINUOUS
 62
     7
100
AcDbLine
 10
4999686.11428746
 20
989800019.9385712
 30
0.0
 11
4999686.11428746
 21
989800020.9385713
 31
0.0
  0
LINE
  5
E2
330
1E
100
AcDbEntity
  8
0
  6
C6CONTINUOUS
 62
     7
100
AcDbLine
 10
4999686.11428746
 20
989800020.9385713
 30
0.0
 11
4999690.114287538
 21
989800020.9385713
 31
0.0
  0
LINE
  5
E3
330
1E
100
AcDbEntity
  8
0
  6
C6CONTINUOUS
 62
     7
100
AcDbLine
 10
4999690.114287538
 20
989800020.9385713
 30
0.0
 11
4999690.114287538
 21
989800019.9385712
 31
0.0
  0
LINE
  5
E4
330
1E
100
AcDbEntity
  8
0
  6
C6CONTINUOUS
 62
     7
100
AcDbLine
 10
4999690.114287538
 20
989800019.9385712
 30
0.0
 11
4999686.11428746
 21
989800019.9385712
 31
0.0
  0
LINE
  5
E5
330
1E
100
AcDbEntity
  8
0
  6
C6CONTINUOUS
 62
     7
100
AcDbLine
 10
4999685.61428743
 20
989800020.9385713
 30
0.0
 11
4999685.61428743
 21
989800021.9385712
 31
0.0
  0
LINE
  5
E6
330
1E
100
AcDbEntity
  8
0
  6
C6CONTINUOUS
 62
     7
100
AcDbLine
 10
4999685.61428743
 20
989800021.9385712
 30
0.0
 11
4999690.6142874
 21
989800021.9385712
 31
0.0
  0
LINE
  5
E7
330
1E
100
AcDbEntity
  8
0
  6
C6CONTINUOUS
 62
     7
100
AcDbLine
 10
4999690.6142874
 20
989800021.9385712
 30
0.0
 11
4999690.6142874
 21
989800020.9385713
 31
0.0
  0
LINE
  5
E8
330
1E
100
AcDbEntity
  8
0
  6
C6CONTINUOUS
 62
     7
100
AcDbLine
 10
4999690.6142874
 20
989800020.9385713
 30
0.0
 11
4999685.61428743
 21
989800020.9385713
 31
0.0
  0
LWPOLYLINE
  5
E9
330
1E
100
AcDbEntity
  8
0
  6
C6CONTINUOUS
 62
     7
100
AcDbPolyline
 90
       73
 70
     0
 43
0.0
 10
4999680.61428746
 20
989800027.4385713
 10
4999680.875858866
 20
989800027.4499995
 10
4999681.135144688
 20
989800027.4841427
 10
4999681.390859
 20
989800027.5407142
 10
4999681.640430289
 20
989800027.6194283
 10
4999681.882144663
 20
989800027.7197141
 10
4999682.114287553
 20
989800027.8404284
 10
4999682.335001849
 20
989800027.9811427
 10
4999682.54271603
 20
989800028.1404282
 10
4999682.735573157
 20
989800028.3172855
 10
4999682.912430355
 20
989800028.5101426
 10
4999683.071858985
 20
989800028.7178572
 10
4999683.212430408
 20
989800028.9385713
 10
4999683.333144629
 20
989800029.1707139
 10
4999683.433430297
 20
989800029.4124283
 10
4999683.5121447
 20
989800029.6621427
 10
4999683.568716148
 20
989800029.9177141
 10
4999683.602858882
 20
989800030.1771427
 10
4999683.614287475
 20
989800030.4385712
 10
4999683.602858882
 20
989800030.7001426
 10
4999683.568716148
 20
989800030.9594284
 10
4999683.5121447
 20
989800031.2151424
 10
4999683.433430297
 20
989800031.464714
 10
4999683.333144629
 20
989800031.7064283
 10
4999683.212430408
 20
989800031.9385714
 10
4999683.071858985
 20
989800032.1592855
 10
4999682.912430355
 20
989800032.3669997
 10
4999682.735573157
 20
989800032.5598568
 10
4999682.54271603
 20
989800032.7367141
 10
4999682.335001849
 20
989800032.8961423
 10
4999682.114287553
 20
989800033.0367141
 10
4999681.882144663
 20
989800033.1574282
 10
4999681.640430289
 20
989800033.257714
 10
4999681.390859
 20
989800033.3364283
 10
4999681.135144688
 20
989800033.3929996
 10
4999680.875858866
 20
989800033.4271426
 10
4999680.61428746
 20
989800033.4385713
 10
4999680.352858935
 20
989800033.4271426
 10
4999680.093430399
 20
989800033.3929996
 10
4999679.837858969
 20
989800033.3364283
 10
4999679.58814463
 20
989800033.257714
 10
4999679.346430426
 20
989800033.1574282
 10
4999679.114287537
 20
989800033.0367141
 10
4999678.893573241
 20
989800032.8961423
 10
4999678.685858889
 20
989800032.7367141
 10
4999678.493001761
 20
989800032.5598568
 10
4999678.316144732
 20
989800032.3669997
 10
4999678.156858983
 20
989800032.1592855
 10
4999678.016144682
 20
989800031.9385714
 10
4999677.895430458
 20
989800031.7064283
 10
4999677.795144623
 20
989800031.464714
 10
4999677.71643039
 20
989800031.2151424
 10
4999677.65985894
 20
989800030.9594284
 10
4999677.625716038
 20
989800030.7001426
 10
4999677.614287612
 20
989800030.4385712
 10
4999677.625716038
 20
989800030.1771427
 10
4999677.65985894
 20
989800029.9177141
 10
4999677.71643039
 20
989800029.6621427
 10
4999677.795144623
 20
989800029.4124283
 10
4999677.895430458
 20
989800029.1707139
 10
4999678.016144682
 20
989800028.9385713
 10
4999678.156858983
 20
989800028.7178572
 10
4999678.316144732
 20
989800028.5101426
 10
4999678.493001761
 20
989800028.3172855
 10
4999678.685858889
 20
989800028.1404282
 10
4999678.893573241
 20
989800027.9811427
 10
4999679.114287537
 20
989800027.8404284
 10
4999679.346430426
 20
989800027.7197141
 10
4999679.58814463
 20
989800027.6194283
 10
4999679.837858969
 20
989800027.5407142
 10
4999680.093430399
 20
989800027.4841427
 10
4999680.352858935
 20
989800027.4499995
 10
4999680.61428746
 20
989800027.4385713
  0
LINE
  5
134
330
1E
100
AcDbEntity
  8
0
  6
C6CONTINUOUS
 62
     7
100
AcDbLine
 10
4999685.114287569
 20
989800034.9385712
 30
0.0
 11
4999685.114287569
 21
989800025.9385714
 31
0.0
  0
LINE
  5
135
330
1E
100
AcDbEntity
  8
0
  6
C6CONTINUOUS
 62
     7
100
AcDbLine
 10
4999685.114287569
 20
989800025.9385714
 30
0.0
 11
4999676.114287519
 21
989800025.9385714
 31
0.0
  0
LINE
  5
136
330
1E
100
AcDbEntity
  8
0
  6
C6CONTINUOUS
 62
     7
100
AcDbLine
 10
4999676.114287519
 20
989800025.9385714
 30
0.0
 11
4999676.114287519
 21
989800034.9385712
 31
0.0
  0
LINE
  5
137
330
1E
100
AcDbEntity
  8
0
  6
C6CONTINUOUS
 62
     7
100
AcDbLine
 10
4999676.114287519
 20
989800034.9385712
 30
0.0
 11
4999685.114287569
 21
989800034.9385712
 31
0.0
  0
LINE
  5
138
330
1E
100
AcDbEntity
  8
0
  6
C6CONTINUOUS
 62
     7
100
AcDbLine
 10
4999685.114287569
 20
989800024.9385713
 30
0.0
 11
4999685.114287569
 21
989800025.9385714
 31
0.0
  0
LINE
  5
139
330
1E
100
AcDbEntity
  8
0
  6
C6CONTINUOUS
 62
     7
100
AcDbLine
 10
4999676.114287519
 20
989800025.9697139
 30
0.0
 11
4999676.114287519
 21
989800021.9385712
 31
0.0
  0
LINE
  5
13A
330
1E
100
AcDbEntity
  8
0
  6
C6CONTINUOUS
 62
     7
100
AcDbLine
 10
4999682.049001734
 20
989800032.0558567
 30
0.0
 11
4999682.61543029
 21
989800031.231714
 31
0.0
  0
LINE
  5
13B
330
1E
100
AcDbEntity
  8
0
  6
C6CONTINUOUS
 62
     7
100
AcDbLine
 10
4999679.318859021
 20
989800028.9661428
 30
0.0
 11
4999678.752430465
 21
989800029.7902855
 31
0.0
  0
LINE
  5
13C
330
1E
100
AcDbEntity
  8
0
  6
C6CONTINUOUS
 62
     7
100
AcDbLine
 10
4999678.855716118
 20
989800032.2881426
 30
0.0
 11
4999679.679858978
 21
989800032.8545712
 31
0.0
  0
LINE
  5
13D
330
1E
100
AcDbEntity
  8
0
  6
C6CONTINUOUS
 62
     7
100
AcDbLine
 10
4999679.679858978
 20
989800032.8545712
 30
0.0
 11
4999680.812716089
 21
989800031.2062857
 31
0.0
  0
LINE
  5
13E
330
1E
100
AcDbEntity
  8
0
  6
C6CONTINUOUS
 62
     7
100
AcDbLine
 10
4999680.812716089
 20
989800031.2062857
 30
0.0
 11
4999682.049001734
 21
989800032.0558567
 31
0.0
  0
LINE
  5
13F
330
1E
100
AcDbEntity
  8
0
  6
C6CONTINUOUS
 62
     7
100
AcDbLine
 10
4999682.61543029
 20
989800031.231714
 30
0.0
 11
4999681.379144645
 21
989800030.3821426
 31
0.0
  0
LINE
  5
140
330
1E
100
AcDbEntity
  8
0
  6
C6CONTINUOUS
 62
     7
100
AcDbLine
 10
4999681.379144645
 20
989800030.3821426
 30
0.0
 11
4999682.511858876
 21
989800028.7339998
 31
0.0
  0
LINE
  5
141
330
1E
100
AcDbEntity
  8
0
  6
C6CONTINUOUS
 62
     7
100
AcDbLine
 10
4999682.511858876
 20
989800028.7339998
 30
0.0
 11
4999681.687716016
 21
989800028.1675713
 31
0.0
  0
LINE
  5
142
330
1E
100
AcDbEntity
  8
0
  6
C6CONTINUOUS
 62
     7
100
AcDbLine
 10
4999681.687716016
 20
989800028.1675713
 30
0.0
 11
4999680.555001785
 21
989800029.8157141
 31
0.0
  0
LINE
  5
143
330
1E
100
AcDbEntity
  8
0
  6
C6CONTINUOUS
 62
     7
100
AcDbLine
 10
4999680.555001785
 20
989800029.8157141
 30
0.0
 11
4999679.318859021
 21
989800028.9661428
 31
0.0
  0
LINE
  5
144
330
1E
100
AcDbEntity
  8
0
  6
C6CONTINUOUS
 62
     7
100
AcDbLine
 10
4999678.752430465
 20
989800029.7902855
 30
0.0
 11
4999679.988573229
 21
989800030.639857
 31
0.0
  0
LINE
  5
145
330
1E
100
AcDbEntity
  8
0
  6
C6CONTINUOUS
 62
     7
100
AcDbLine
 10
4999679.988573229
 20
989800030.639857
 30
0.0
 11
4999678.855716118
 21
989800032.2881426
 31
0.0
  0
LINE
  5
146
330
1E
100
AcDbEntity
  8
0
  6
C6CONTINUOUS
 62
     7
100
AcDbLine
 10
4999684.619573277
 20
989800030.9385713
 30
0.0
 11
4999683.619573215
 21
989800030.9385713
 31
0.0
  0
LINE
  5
147
330
1E
100
AcDbEntity
  8
0
  6
C6CONTINUOUS
 62
     7
100
AcDbLine
 10
4999684.619573277
 20
989800029.9385714
 30
0.0
 11
4999683.619573215
 21
989800029.9385714
 31
0.0
  0
LINE
  5
148
330
1E
100
AcDbEntity
  8
0
  6
C6CONTINUOUS
 62
     7
100
AcDbLine
 10
4999681.119573231
 20
989800027.4385713
 30
0.0
 11
4999681.119573231
 21
989800026.4385713
 31
0.0
  0
LINE
  5
149
330
1E
100
AcDbEntity
  8
0
  6
C6CONTINUOUS
 62
     7
100
AcDbLine
 10
4999680.119573168
 20
989800027.4385713
 30
0.0
 11
4999680.119573168
 21
989800026.4385713
 31
0.0
  0
LINE
  5
14A
330
1E
100
AcDbEntity
  8
0
  6
C6CONTINUOUS
 62
     7
100
AcDbLine
 10
4999680.119573168
 20
989800033.4385713
 30
0.0
 11
4999680.119573168
 21
989800034.4385714
 31
0.0
  0
LINE
  5
14B
330
1E
100
AcDbEntity
  8
0
  6
C6CONTINUOUS
 62
     7
100
AcDbLine
 10
4999681.119573231
 20
989800033.4385713
 30
0.0
 11
4999681.119573231
 21
989800034.4385714
 31
0.0
  0
LINE
  5
14C
330
1E
100
AcDbEntity
  8
0
  6
C6CONTINUOUS
 62
     7
100
AcDbLine
 10
4999677.619573184
 20
989800030.9385713
 30
0.0
 11
4999676.619573291
 21
989800030.9385713
 31
0.0
  0
LINE
  5
14D
330
1E
100
AcDbEntity
  8
0
  6
C6CONTINUOUS
 62
     7
100
AcDbLine
 10
4999677.619573184
 20
989800029.9385714
 30
0.0
 11
4999676.619573291
 21
989800029.9385714
 31
0.0
  0
LINE
  5
14E
330
1E
100
AcDbEntity
  8
0
  6
C6CONTINUOUS
 62
     7
100
AcDbLine
 10
4999684.619573277
 20
989800026.9385713
 30
0.0
 11
4999684.619573277
 21
989800033.9385713
 31
0.0
  0
LWPOLYLINE
  5
14F
330
1E
100
AcDbEntity
  8
0
  6
C6CONTINUOUS
 62
     7
100
AcDbPolyline
 90
       19
 70
     0
 43
0.0
 10
4999684.619573279
 20
989800033.9385713
 10
4999684.617715997
 20
989800033.9821427
 10
4999684.612001784
 20
989800034.0254283
 10
4999684.602573181
 20
989800034.0679999
 10
4999684.589430358
 20
989800034.1095713
 10
4999684.572858903
 20
989800034.1498573
 10
4999684.55257323
 20
989800034.1885714
 10
4999684.529144688
 20
989800034.2254283
 10
4999684.502573278
 20
989800034.2599999
 10
4999684.473144591
 20
989800034.2921426
 10
4999684.441001848
 20
989800034.3215713
 10
4999684.406430303
 20
989800034.3481426
 10
4999684.369573178
 20
989800034.3715713
 10
4999684.330858938
 20
989800034.3917141
 10
4999684.290573181
 20
989800034.4084282
 10
4999684.249001838
 20
989800034.4215713
 10
4999684.206430327
 20
989800034.4309997
 10
4999684.163144583
 20
989800034.4367137
 10
4999684.119573246
 20
989800034.4385714
  0
LINE
  5
164
330
1E
100
AcDbEntity
  8
0
  6
C6CONTINUOUS
 62
     7
100
AcDbLine
 10
4999684.119573246
 20
989800034.4385714
 30
0.0
 11
4999677.119573322
 21
989800034.4385714
 31
0.0
  0
LWPOLYLINE
  5
165
330
1E
100
AcDbEntity
  8
0
  6
C6CONTINUOUS
 62
     7
100
AcDbPolyline
 90
       19
 70
     0
 43
0.0
 10
4999677.119573322
 20
989800034.4385714
 10
4999677.076001816
 20
989800034.4367137
 10
4999677.032858953
 20
989800034.4309997
 10
4999676.990144731
 20
989800034.4215713
 10
4999676.948573217
 20
989800034.4084282
 10
4999676.90828746
 20
989800034.3917141
 10
4999676.869573222
 20
989800034.3715713
 10
4999676.832858973
 20
989800034.3481426
 10
4999676.798144718
 20
989800034.3215713
 10
4999676.766001806
 20
989800034.2921426
 10
4999676.736573292
 20
989800034.2599999
 10
4999676.710001883
 20
989800034.2254283
 10
4999676.68657334
 20
989800034.1885714
 10
4999676.666430376
 20
989800034.1498573
 10
4999676.649858922
 20
989800034.1095713
 10
4999676.636573218
 20
989800034.0679999
 10
4999676.627144613
 20
989800034.0254283
 10
4999676.621430404
 20
989800033.9821427
 10
4999676.619573291
 20
989800033.9385713
  0
LINE
  5
17A
330
1E
100
AcDbEntity
  8
0
  6
C6CONTINUOUS
 62
     7
100
AcDbLine
 10
4999676.619573291
 20
989800033.9385713
 30
0.0
 11
4999676.619573291
 21
989800026.9385713
 31
0.0
  0
LWPOLYLINE
  5
17B
330
1E
100
AcDbEntity
  8
0
  6
C6CONTINUOUS
 62
     7
100
AcDbPolyline
 90
       19
 70
     0
 43
0.0
 10
4999676.619573291
 20
989800026.9385716
 10
4999676.621430404
 20
989800026.8949996
 10
4999676.627144613
 20
989800026.8517142
 10
4999676.636573218
 20
989800026.8091427
 10
4999676.649858922
 20
989800026.7675714
 10
4999676.666430376
 20
989800026.7272854
 10
4999676.68657334
 20
989800026.6885713
 10
4999676.710001883
 20
989800026.651714
 10
4999676.736573292
 20
989800026.6171427
 10
4999676.766001806
 20
989800026.5849995
 10
4999676.798144718
 20
989800026.5555713
 10
4999676.832858973
 20
989800026.5289995
 10
4999676.869573222
 20
989800026.5055712
 10
4999676.90828746
 20
989800026.4854283
 10
4999676.948573217
 20
989800026.4687141
 10
4999676.990144731
 20
989800026.4555713
 10
4999677.032858953
 20
989800026.4461424
 10
4999677.076001816
 20
989800026.4404284
 10
4999677.119573322
 20
989800026.4385713
  0
LINE
  5
190
330
1E
100
AcDbEntity
  8
0
  6
C6CONTINUOUS
 62
     7
100
AcDbLine
 10
4999677.119573322
 20
989800026.4385713
 30
0.0
 11
4999684.119573246
 21
989800026.4385713
 31
0.0
  0
LWPOLYLINE
  5
191
330
1E
100
AcDbEntity
  8
0
  6
C6CONTINUOUS
 62
     7
100
AcDbPolyline
 90
       19
 70
     0
 43
0.0
 10
4999684.119573246
 20
989800026.4385713
 10
4999684.163144583
 20
989800026.4404284
 10
4999684.206430327
 20
989800026.4461424
 10
4999684.249001838
 20
989800026.4555713
 10
4999684.290573181
 20
989800026.4687141
 10
4999684.330858938
 20
989800026.4854283
 10
4999684.369573178
 20
989800026.5055712
 10
4999684.406430303
 20
989800026.5289995
 10
4999684.441001848
 20
989800026.5555713
 10
4999684.473144591
 20
989800026.5849995
 10
4999684.502573278
 20
989800026.6171427
 10
4999684.529144688
 20
989800026.651714
 10
4999684.55257323
 20
989800026.6885713
 10
4999684.572858903
 20
989800026.7272854
 10
4999684.589430358
 20
989800026.7675714
 10
4999684.602573181
 20
989800026.8091427
 10
4999684.612001784
 20
989800026.8517142
 10
4999684.617715997
 20
989800026.8949996
 10
4999684.619573279
 20
989800026.9385716
  0
LWPOLYLINE
  5
1A6
330
1E
100
AcDbEntity
  8
0
  6
C6CONTINUOUS
 62
     7
100
AcDbPolyline
 90
       73
 70
     0
 43
0.0
 10
4999695.614287369
 20
989800027.4385713
 10
4999695.875858776
 20
989800027.4499995
 10
4999696.135144599
 20
989800027.4841427
 10
4999696.390858911
 20
989800027.5407142
 10
4999696.640430199
 20
989800027.6194283
 10
4999696.882144572
 20
989800027.7197141
 10
4999697.114287462
 20
989800027.8404284
 10
4999697.335001758
 20
989800027.9811427
 10
4999697.54271594
 20
989800028.1404282
 10
4999697.735573068
 20
989800028.3172855
 10
4999697.912430266
 20
989800028.5101426
 10
4999698.071858896
 20
989800028.7178572
 10
4999698.212430319
 20
989800028.9385713
 10
4999698.33314454
 20
989800029.1707139
 10
4999698.433430205
 20
989800029.4124283
 10
4999698.51214461
 20
989800029.6621427
 10
4999698.568716058
 20
989800029.9177141
 10
4999698.602858791
 20
989800030.1771427
 10
4999698.614287384
 20
989800030.4385712
 10
4999698.602858791
 20
989800030.7001426
 10
4999698.568716058
 20
989800030.9594284
 10
4999698.51214461
 20
989800031.2151424
 10
4999698.433430205
 20
989800031.464714
 10
4999698.33314454
 20
989800031.7064283
 10
4999698.212430319
 20
989800031.9385714
 10
4999698.071858896
 20
989800032.1592855
 10
4999697.912430266
 20
989800032.3669997
 10
4999697.735573068
 20
989800032.5598568
 10
4999697.54271594
 20
989800032.7367141
 10
4999697.335001758
 20
989800032.8961423
 10
4999697.114287462
 20
989800033.0367141
 10
4999696.882144572
 20
989800033.1574282
 10
4999696.640430199
 20
989800033.257714
 10
4999696.390858911
 20
989800033.3364283
 10
4999696.135144599
 20
989800033.3929996
 10
4999695.875858776
 20
989800033.4271426
 10
4999695.614287369
 20
989800033.4385713
 10
4999695.352858845
 20
989800033.4271426
 10
4999695.09343031
 20
989800033.3929996
 10
4999694.83785888
 20
989800033.3364283
 10
4999694.588144541
 20
989800033.257714
 10
4999694.346430337
 20
989800033.1574282
 10
4999694.114287447
 20
989800033.0367141
 10
4999693.893573152
 20
989800032.8961423
 10
4999693.685858799
 20
989800032.7367141
 10
4999693.493001671
 20
989800032.5598568
 10
4999693.316144643
 20
989800032.3669997
 10
4999693.156858895
 20
989800032.1592855
 10
4999693.016144591
 20
989800031.9385714
 10
4999692.895430368
 20
989800031.7064283
 10
4999692.795144532
 20
989800031.464714
 10
4999692.716430301
 20
989800031.2151424
 10
4999692.659858849
 20
989800030.9594284
 10
4999692.625715947
 20
989800030.7001426
 10
4999692.614287523
 20
989800030.4385712
 10
4999692.625715947
 20
989800030.1771427
 10
4999692.659858849
 20
989800029.9177141
 10
4999692.716430301
 20
989800029.6621427
 10
4999692.795144532
 20
989800029.4124283
 10
4999692.895430368
 20
989800029.1707139
 10
4999693.016144591
 20
989800028.9385713
 10
4999693.156858895
 20
989800028.7178572
 10
4999693.316144643
 20
989800028.5101426
 10
4999693.493001671
 20
989800028.3172855
 10
4999693.685858799
 20
989800028.1404282
 10
4999693.893573152
 20
989800027.9811427
 10
4999694.114287447
 20
989800027.8404284
 10
4999694.346430337
 20
989800027.7197141
 10
4999694.588144541
 20
989800027.6194283
 10
4999694.83785888
 20
989800027.5407142
 10
4999695.09343031
 20
989800027.4841427
 10
4999695.352858845
 20
989800027.4499995
 10
4999695.614287369
 20
989800027.4385713
  0
LINE
  5
1F1
330
1E
100
AcDbEntity
  8
0
  6
C6CONTINUOUS
 62
     7
100
AcDbLine
 10
4999700.114287477
 20
989800034.9385712
 30
0.0
 11
4999700.114287477
 21
989800025.9385714
 31
0.0
  0
LINE
  5
1F2
330
1E
100
AcDbEntity
  8
0
  6
C6CONTINUOUS
 62
     7
100
AcDbLine
 10
4999700.114287477
 20
989800025.9385714
 30
0.0
 11
4999691.11428743
 21
989800025.9385714
 31
0.0
  0
LINE
  5
1F3
330
1E
100
AcDbEntity
  8
0
  6
C6CONTINUOUS
 62
     7
100
AcDbLine
 10
4999691.11428743
 20
989800025.9385714
 30
0.0
 11
4999691.11428743
 21
989800034.9385712
 31
0.0
  0
LINE
  5
1F4
330
1E
100
AcDbEntity
  8
0
  6
C6CONTINUOUS
 62
     7
100
AcDbLine
 10
4999691.11428743
 20
989800034.9385712
 30
0.0
 11
4999700.114287477
 21
989800034.9385712
 31
0.0
  0
LINE
  5
1F5
330
1E
100
AcDbEntity
  8
0
  6
C6CONTINUOUS
 62
     7
100
AcDbLine
 10
4999691.11428743
 20
989800025.9385714
 30
0.0
 11
4999691.11428743
 21
989800024.9385713
 31
0.0
  0
LINE
  5
1F6
330
1E
100
AcDbEntity
  8
0
  6
C6CONTINUOUS
 62
     7
100
AcDbLine
 10
4999700.114287477
 20
989800025.9697139
 30
0.0
 11
4999700.114287477
 21
989800021.9385712
 31
0.0
  0
LINE
  5
1F7
330
1E
100
AcDbEntity
  8
0
  6
C6CONTINUOUS
 62
     7
100
AcDbLine
 10
4999699.619573188
 20
989800029.9385714
 30
0.0
 11
4999698.619573123
 21
989800029.9385714
 31
0.0
  0
LINE
  5
1F8
330
1E
100
AcDbEntity
  8
0
  6
C6CONTINUOUS
 62
     7
100
AcDbLine
 10
4999699.619573188
 20
989800030.9385713
 30
0.0
 11
4999698.619573123
 21
989800030.9385713
 31
0.0
  0
LINE
  5
1F9
330
1E
100
AcDbEntity
  8
0
  6
C6CONTINUOUS
 62
     7
100
AcDbLine
 10
4999696.119573139
 20
989800033.4385713
 30
0.0
 11
4999696.119573139
 21
989800034.4385714
 31
0.0
  0
LINE
  5
1FA
330
1E
100
AcDbEntity
  8
0
  6
C6CONTINUOUS
 62
     7
100
AcDbLine
 10
4999695.119573078
 20
989800034.4385714
 30
0.0
 11
4999695.119573078
 21
989800033.4385713
 31
0.0
  0
LINE
  5
1FB
330
1E
100
AcDbEntity
  8
0
  6
C6CONTINUOUS
 62
     7
100
AcDbLine
 10
4999696.119573139
 20
989800027.4385713
 30
0.0
 11
4999696.119573139
 21
989800026.4385713
 31
0.0
  0
LINE
  5
1FC
330
1E
100
AcDbEntity
  8
0
  6
C6CONTINUOUS
 62
     7
100
AcDbLine
 10
4999695.119573078
 20
989800027.4385713
 30
0.0
 11
4999695.119573078
 21
989800026.4385713
 31
0.0
  0
LINE
  5
1FD
330
1E
100
AcDbEntity
  8
0
  6
C6CONTINUOUS
 62
     7
100
AcDbLine
 10
4999692.619573092
 20
989800029.9385714
 30
0.0
 11
4999691.619573201
 21
989800029.9385714
 31
0.0
  0
LINE
  5
1FE
330
1E
100
AcDbEntity
  8
0
  6
C6CONTINUOUS
 62
     7
100
AcDbLine
 10
4999692.619573092
 20
989800030.9385713
 30
0.0
 11
4999691.619573201
 21
989800030.9385713
 31
0.0
  0
LINE
  5
1FF
330
1E
100
AcDbEntity
  8
0
  6
C6CONTINUOUS
 62
     7
100
AcDbLine
 10
4999699.619573188
 20
989800026.9385713
 30
0.0
 11
4999699.619573188
 21
989800033.9385713
 31
0.0
  0
LWPOLYLINE
  5
200
330
1E
100
AcDbEntity
  8
0
  6
C6CONTINUOUS
 62
     7
100
AcDbPolyline
 90
       19
 70
     0
 43
0.0
 10
4999699.619573187
 20
989800033.9385713
 10
4999699.617715906
 20
989800033.9821427
 10
4999699.612001695
 20
989800034.0254283
 10
4999699.602573091
 20
989800034.0679999
 10
4999699.589430266
 20
989800034.1095713
 10
4999699.572858814
 20
989800034.1498573
 10
4999699.552573139
 20
989800034.1885714
 10
4999699.529144598
 20
989800034.2254283
 10
4999699.502573188
 20
989800034.2599999
 10
4999699.473144501
 20
989800034.2921426
 10
4999699.44100176
 20
989800034.3215713
 10
4999699.406430215
 20
989800034.3481426
 10
4999699.369573086
 20
989800034.3715713
 10
4999699.330858849
 20
989800034.3917141
 10
4999699.290573092
 20
989800034.4084282
 10
4999699.249001746
 20
989800034.4215713
 10
4999699.206430236
 20
989800034.4309997
 10
4999699.163144491
 20
989800034.4367137
 10
4999699.119573157
 20
989800034.4385714
  0
LINE
  5
215
330
1E
100
AcDbEntity
  8
0
  6
C6CONTINUOUS
 62
     7
100
AcDbLine
 10
4999699.119573157
 20
989800034.4385714
 30
0.0
 11
4999692.119573231
 21
989800034.4385714
 31
0.0
  0
LWPOLYLINE
  5
216
330
1E
100
AcDbEntity
  8
0
  6
C6CONTINUOUS
 62
     7
100
AcDbPolyline
 90
       19
 70
     0
 43
0.0
 10
4999692.119573231
 20
989800034.4385714
 10
4999692.076001726
 20
989800034.4367137
 10
4999692.032858863
 20
989800034.4309997
 10
4999691.990144642
 20
989800034.4215713
 10
4999691.948573127
 20
989800034.4084282
 10
4999691.90828737
 20
989800034.3917141
 10
4999691.869573131
 20
989800034.3715713
 10
4999691.832858885
 20
989800034.3481426
 10
4999691.798144628
 20
989800034.3215713
 10
4999691.766001718
 20
989800034.2921426
 10
4999691.736573201
 20
989800034.2599999
 10
4999691.710001791
 20
989800034.2254283
 10
4999691.68657325
 20
989800034.1885714
 10
4999691.666430285
 20
989800034.1498573
 10
4999691.649858831
 20
989800034.1095713
 10
4999691.636573126
 20
989800034.0679999
 10
4999691.627144525
 20
989800034.0254283
 10
4999691.621430311
 20
989800033.9821427
 10
4999691.619573202
 20
989800033.9385713
  0
LINE
  5
22B
330
1E
100
AcDbEntity
  8
0
  6
C6CONTINUOUS
 62
     7
100
AcDbLine
 10
4999691.619573201
 20
989800033.9385713
 30
0.0
 11
4999691.619573201
 21
989800026.9385713
 31
0.0
  0
LWPOLYLINE
  5
22C
330
1E
100
AcDbEntity
  8
0
  6
C6CONTINUOUS
 62
     7
100
AcDbPolyline
 90
       19
 70
     0
 43
0.0
 10
4999691.619573202
 20
989800026.9385716
 10
4999691.621430311
 20
989800026.8949996
 10
4999691.627144525
 20
989800026.8517142
 10
4999691.636573126
 20
989800026.8091427
 10
4999691.649858831
 20
989800026.7675714
 10
4999691.666430285
 20
989800026.7272854
 10
4999691.68657325
 20
989800026.6885713
 10
4999691.710001791
 20
989800026.651714
 10
4999691.736573201
 20
989800026.6171427
 10
4999691.766001718
 20
989800026.5849995
 10
4999691.798144628
 20
989800026.5555713
 10
4999691.832858885
 20
989800026.5289995
 10
4999691.869573131
 20
989800026.5055712
 10
4999691.90828737
 20
989800026.4854283
 10
4999691.948573127
 20
989800026.4687141
 10
4999691.990144642
 20
989800026.4555713
 10
4999692.032858863
 20
989800026.4461424
 10
4999692.076001726
 20
989800026.4404284
 10
4999692.119573231
 20
989800026.4385713
  0
LINE
  5
241
330
1E
100
AcDbEntity
  8
0
  6
C6CONTINUOUS
 62
     7
100
AcDbLine
 10
4999692.119573231
 20
989800026.4385713
 30
0.0
 11
4999699.119573157
 21
989800026.4385713
 31
0.0
  0
LWPOLYLINE
  5
242
330
1E
100
AcDbEntity
  8
0
  6
C6CONTINUOUS
 62
     7
100
AcDbPolyline
 90
       19
 70
     0
 43
0.0
 10
4999699.119573157
 20
989800026.4385713
 10
4999699.163144491
 20
989800026.4404284
 10
4999699.206430236
 20
989800026.4461424
 10
4999699.249001746
 20
989800026.4555713
 10
4999699.290573092
 20
989800026.4687141
 10
4999699.330858849
 20
989800026.4854283
 10
4999699.369573086
 20
989800026.5055712
 10
4999699.406430215
 20
989800026.5289995
 10
4999699.44100176
 20
989800026.5555713
 10
4999699.473144501
 20
989800026.5849995
 10
4999699.502573188
 20
989800026.6171427
 10
4999699.529144598
 20
989800026.651714
 10
4999699.552573139
 20
989800026.6885713
 10
4999699.572858814
 20
989800026.7272854
 10
4999699.589430266
 20
989800026.7675714
 10
4999699.602573091
 20
989800026.8091427
 10
4999699.612001695
 20
989800026.8517142
 10
4999699.617715906
 20
989800026.8949996
 10
4999699.619573187
 20
989800026.9385716
  0
LINE
  5
257
330
1E
100
AcDbEntity
  8
0
  6
C6CONTINUOUS
 62
     7
100
AcDbLine
 10
4999697.049001643
 20
989800032.0558567
 30
0.0
 11
4999697.615430199
 21
989800031.231714
 31
0.0
  0
LINE
  5
258
330
1E
100
AcDbEntity
  8
0
  6
C6CONTINUOUS
 62
     7
100
AcDbLine
 10
4999694.318858931
 20
989800028.9661428
 30
0.0
 11
4999693.752430375
 21
989800029.7902855
 31
0.0
  0
LINE
  5
259
330
1E
100
AcDbEntity
  8
0
  6
C6CONTINUOUS
 62
     7
100
AcDbLine
 10
4999693.855716028
 20
989800032.2881426
 30
0.0
 11
4999694.679858889
 21
989800032.8545712
 31
0.0
  0
LINE
  5
25A
330
1E
100
AcDbEntity
  8
0
  6
C6CONTINUOUS
 62
     7
100
AcDbLine
 10
4999694.679858889
 20
989800032.8545712
 30
0.0
 11
4999695.812715999
 21
989800031.2062857
 31
0.0
  0
LINE
  5
25B
330
1E
100
AcDbEntity
  8
0
  6
C6CONTINUOUS
 62
     7
100
AcDbLine
 10
4999695.812715999
 20
989800031.2062857
 30
0.0
 11
4999697.049001643
 21
989800032.0558567
 31
0.0
  0
LINE
  5
25C
330
1E
100
AcDbEntity
  8
0
  6
C6CONTINUOUS
 62
     7
100
AcDbLine
 10
4999697.615430199
 20
989800031.231714
 30
0.0
 11
4999696.379144555
 21
989800030.3821426
 31
0.0
  0
LINE
  5
25D
330
1E
100
AcDbEntity
  8
0
  6
C6CONTINUOUS
 62
     7
100
AcDbLine
 10
4999696.379144555
 20
989800030.3821426
 30
0.0
 11
4999697.511858784
 21
989800028.7339998
 31
0.0
  0
LINE
  5
25E
330
1E
100
AcDbEntity
  8
0
  6
C6CONTINUOUS
 62
     7
100
AcDbLine
 10
4999697.511858784
 20
989800028.7339998
 30
0.0
 11
4999696.687715926
 21
989800028.1675713
 31
0.0
  0
LINE
  5
25F
330
1E
100
AcDbEntity
  8
0
  6
C6CONTINUOUS
 62
     7
100
AcDbLine
 10
4999696.687715926
 20
989800028.1675713
 30
0.0
 11
4999695.555001695
 21
989800029.8157141
 31
0.0
  0
LINE
  5
260
330
1E
100
AcDbEntity
  8
0
  6
C6CONTINUOUS
 62
     7
100
AcDbLine
 10
4999695.555001695
 20
989800029.8157141
 30
0.0
 11
4999694.318858931
 21
989800028.9661428
 31
0.0
  0
LINE
  5
261
330
1E
100
AcDbEntity
  8
0
  6
C6CONTINUOUS
 62
     7
100
AcDbLine
 10
4999693.752430375
 20
989800029.7902855
 30
0.0
 11
4999694.988573137
 21
989800030.639857
 31
0.0
  0
LINE
  5
262
330
1E
100
AcDbEntity
  8
0
  6
C6CONTINUOUS
 62
     7
100
AcDbLine
 10
4999694.988573137
 20
989800030.639857
 30
0.0
 11
4999693.855716028
 21
989800032.2881426
 31
0.0
  0
LWPOLYLINE
  5
263
330
1E
100
AcDbEntity
  8
0
  6
C6CONTINUOUS
 62
     7
100
AcDbPolyline
 90
       73
 70
     0
 43
0.0
 10
4999696.114287401
 20
989800045.9385713
 10
4999695.852858875
 20
989800045.9271424
 10
4999695.59328746
 20
989800045.8929995
 10
4999695.337858907
 20
989800045.8362856
 10
4999695.088287452
 20
989800045.757714
 10
4999694.846430367
 20
989800045.6574282
 10
4999694.614287476
 20
989800045.5367141
 10
4999694.393573181
 20
989800045.3959999
 10
4999694.185858831
 20
989800045.236714
 10
4999693.993001703
 20
989800045.0598569
 10
4999693.816144504
 20
989800044.8669996
 10
4999693.656858926
 20
989800044.6592851
 10
4999693.516144622
 20
989800044.4385713
 10
4999693.395430232
 20
989800044.2064283
 10
4999693.295144565
 20
989800043.9645707
 10
4999693.216573212
 20
989800043.7150001
 10
4999693.159858884
 20
989800043.4595711
 10
4999693.125715978
 20
989800043.1999996
 10
4999693.114287384
 20
989800042.9385714
 10
4999693.125715978
 20
989800042.6771426
 10
4999693.159858884
 20
989800042.4175712
 10
4999693.216573212
 20
989800042.1621427
 10
4999693.295144565
 20
989800041.9125713
 10
4999693.395430232
 20
989800041.6707139
 10
4999693.516144622
 20
989800041.4385712
 10
4999693.656858926
 20
989800041.2178568
 10
4999693.816144504
 20
989800041.0101426
 10
4999693.993001703
 20
989800040.8172855
 10
4999694.185858831
 20
989800040.6404284
 10
4999694.393573181
 20
989800040.4811428
 10
4999694.614287476
 20
989800040.3404283
 10
4999694.846430367
 20
989800040.2197141
 10
4999695.088287452
 20
989800040.1194282
 10
4999695.337858907
 20
989800040.0408571
 10
4999695.59328746
 20
989800039.9841423
 10
4999695.852858875
 20
989800039.9499998
 10
4999696.114287401
 20
989800039.9385713
 10
4999696.375715926
 20
989800039.9499998
 10
4999696.635287341
 20
989800039.9841423
 10
4999696.890716061
 20
989800040.0408571
 10
4999697.140287349
 20
989800040.1194282
 10
4999697.382144604
 20
989800040.2197141
 10
4999697.614287494
 20
989800040.3404283
 10
4999697.835001619
 20
989800040.4811428
 10
4999698.04271597
 20
989800040.6404284
 10
4999698.235573098
 20
989800040.8172855
 10
4999698.412430298
 20
989800041.0101426
 10
4999698.571716046
 20
989800041.2178568
 10
4999698.712430348
 20
989800041.4385712
 10
4999698.833144569
 20
989800041.6707139
 10
4999698.933430236
 20
989800041.9125713
 10
4999699.012001761
 20
989800042.1621427
 10
4999699.068715918
 20
989800042.4175712
 10
4999699.102858823
 20
989800042.6771426
 10
4999699.114287416
 20
989800042.9385714
 10
4999699.102858823
 20
989800043.1999996
 10
4999699.068715918
 20
989800043.4595711
 10
4999699.012001761
 20
989800043.7150001
 10
4999698.933430236
 20
989800043.9645707
 10
4999698.833144569
 20
989800044.2064283
 10
4999698.712430348
 20
989800044.4385713
 10
4999698.571716046
 20
989800044.6592851
 10
4999698.412430298
 20
989800044.8669996
 10
4999698.235573098
 20
989800045.0598569
 10
4999698.04271597
 20
989800045.236714
 10
4999697.835001619
 20
989800045.3959999
 10
4999697.614287494
 20
989800045.5367141
 10
4999697.382144604
 20
989800045.6574282
 10
4999697.140287349
 20
989800045.757714
 10
4999696.890716061
 20
989800045.8362856
 10
4999696.635287341
 20
989800045.8929995
 10
4999696.375715926
 20
989800045.9271424
 10
4999696.114287401
 20
989800045.9385713
  0
LWPOLYLINE
  5
2AE
330
1E
100
AcDbEntity
  8
0
  6
C6CONTINUOUS
 62
     7
100
AcDbPolyline
 90
       73
 70
     0
 43
0.0
 10
4999696.114287401
 20
989800044.4385713
 10
4999695.983573221
 20
989800044.4328568
 10
4999695.853858871
 20
989800044.415714
 10
4999695.726001801
 20
989800044.3874282
 10
4999695.601287426
 20
989800044.3481427
 10
4999695.480287443
 20
989800044.2979997
 10
4999695.36428744
 20
989800044.237571
 10
4999695.253858937
 20
989800044.1672852
 10
4999695.15014464
 20
989800044.0875712
 10
4999695.053573197
 20
989800043.9992854
 10
4999694.965287479
 20
989800043.9027139
 10
4999694.885573078
 20
989800043.7989997
 10
4999694.815287452
 20
989800043.6885713
 10
4999694.754858902
 20
989800043.5725712
 10
4999694.704716068
 20
989800043.4515713
 10
4999694.665430306
 20
989800043.3268569
 10
4999694.637144497
 20
989800043.1989997
 10
4999694.62000169
 20
989800043.0692851
 10
4999694.614287476
 20
989800042.9385714
 10
4999694.62000169
 20
989800042.8078567
 10
4999694.637144497
 20
989800042.6781424
 10
4999694.665430306
 20
989800042.550285
 10
4999694.704716068
 20
989800042.4255712
 10
4999694.754858902
 20
989800042.3045713
 10
4999694.815287452
 20
989800042.1885713
 10
4999694.885573078
 20
989800042.0781427
 10
4999694.965287479
 20
989800041.9744283
 10
4999695.053573197
 20
989800041.877857
 10
4999695.15014464
 20
989800041.7895712
 10
4999695.253858937
 20
989800041.7098566
 10
4999695.36428744
 20
989800041.6395714
 10
4999695.480287443
 20
989800041.5791424
 10
4999695.601287426
 20
989800041.5289995
 10
4999695.726001801
 20
989800041.4897142
 10
4999695.853858871
 20
989800041.4614283
 10
4999695.983573221
 20
989800041.4442854
 10
4999696.114287401
 20
989800041.4385712
 10
4999696.245001748
 20
989800041.4442854
 10
4999696.37471593
 20
989800041.4614283
 10
4999696.502573171
 20
989800041.4897142
 10
4999696.627287375
 20
989800041.5289995
 10
4999696.748287356
 20
989800041.5791424
 10
4999696.864287361
 20
989800041.6395714
 10
4999696.974716036
 20
989800041.7098566
 10
4999697.07843033
 20
989800041.7895712
 10
4999697.175001776
 20
989800041.877857
 10
4999697.263287494
 20
989800041.9744283
 10
4999697.343001724
 20
989800042.0781427
 10
4999697.413287349
 20
989800042.1885713
 10
4999697.473716071
 20
989800042.3045713
 10
4999697.523858903
 20
989800042.4255712
 10
4999697.563144493
 20
989800042.550285
 10
4999697.591430305
 20
989800042.6781424
 10
4999697.608573112
 20
989800042.8078567
 10
4999697.614287494
 20
989800042.9385714
 10
4999697.608573112
 20
989800043.0692851
 10
4999697.591430305
 20
989800043.1989997
 10
4999697.563144493
 20
989800043.3268569
 10
4999697.523858903
 20
989800043.4515713
 10
4999697.473716071
 20
989800043.5725712
 10
4999697.413287349
 20
989800043.6885713
 10
4999697.343001724
 20
989800043.7989997
 10
4999697.263287494
 20
989800043.9027139
 10
4999697.175001776
 20
989800043.9992854
 10
4999697.07843033
 20
989800044.0875712
 10
4999696.974716036
 20
989800044.1672852
 10
4999696.864287361
 20
989800044.237571
 10
4999696.748287356
 20
989800044.2979997
 10
4999696.627287375
 20
989800044.3481427
 10
4999696.502573171
 20
989800044.3874282
 10
4999696.37471593
 20
989800044.415714
 10
4999696.245001748
 20
989800044.4328568
 10
4999696.114287401
 20
989800044.4385713
  0
LWPOLYLINE
  5
2F9
330
1E
100
AcDbEntity
  8
0
  6
C6CONTINUOUS
 62
     7
100
AcDbPolyline
 90
       19
 70
     0
 43
0.0
 10
4999709.614287389
 20
989800011.9385716
 10
4999709.788573071
 20
989800011.9461428
 10
4999709.961572997
 20
989800011.9689998
 10
4999710.131858697
 20
989800012.0067141
 10
4999710.298287296
 20
989800012.0591428
 10
4999710.459430156
 20
989800012.126
 10
4999710.61428728
 20
989800012.2064283
 10
4999710.7614302
 20
989800012.3002855
 10
4999710.89985875
 20
989800012.4064283
 10
4999711.028430227
 20
989800012.5244283
 10
4999711.146430222
 20
989800012.6529998
 10
4999711.252572981
 20
989800012.7914283
 10
4999711.346430201
 20
989800012.9385714
 10
4999711.426858835
 20
989800013.0934283
 10
4999711.493715832
 20
989800013.2545712
 10
4999711.546144417
 20
989800013.4210001
 10
4999711.583858831
 20
989800013.5912855
 10
4999711.606715846
 20
989800013.7642855
 10
4999711.614287341
 20
989800013.9385716
  0
LWPOLYLINE
  5
30E
330
1E
100
AcDbEntity
  8
0
  6
C6CONTINUOUS
 62
     7
100
AcDbPolyline
 90
       16
 70
     0
 43
0.0
 10
4999701.191858899
 20
989800012.9625712
 10
4999701.204858841
 20
989800012.9255716
 10
4999701.254858794
 20
989800012.8047142
 10
4999701.315287344
 20
989800012.6885714
 10
4999701.385573141
 20
989800012.5781424
 10
4999701.465144489
 20
989800012.4744283
 10
4999701.553573087
 20
989800012.3778569
 10
4999701.650144534
 20
989800012.2894282
 10
4999701.753858828
 20
989800012.209857
 10
4999701.864287332
 20
989800012.1395712
 10
4999701.980430216
 20
989800012.0791428
 10
4999702.101287319
 20
989800012.0291428
 10
4999702.226144575
 20
989800011.9897146
 10
4999702.353858763
 20
989800011.9614282
 10
4999702.483573116
 20
989800011.9442855
 10
4999702.614287464
 20
989800011.9385716
  0
LINE
  5
320
330
1E
100
AcDbEntity
  8
0
  6
C6CONTINUOUS
 62
     7
100
AcDbLine
 10
4999701.214287445
 20
989800012.9385714
 30
0.0
 11
4999700.114287477
 21
989800020.4385713
 31
0.0
  0
LINE
  5
321
330
1E
100
AcDbEntity
  8
0
  6
C6CONTINUOUS
 62
     7
100
AcDbLine
 10
4999711.614287342
 20
989800019.4385714
 30
0.0
 11
4999711.614287342
 21
989800013.9385716
 31
0.0
  0
LWPOLYLINE
  5
322
330
1E
100
AcDbEntity
  8
0
  6
C6CONTINUOUS
 62
     7
100
AcDbPolyline
 90
       19
 70
     0
 43
0.0
 10
4999711.614287341
 20
989800019.4385714
 10
4999711.610430241
 20
989800019.5257139
 10
4999711.599144525
 20
989800019.6121428
 10
4999711.580144439
 20
989800019.6974283
 10
4999711.554001672
 20
989800019.7805712
 10
4999711.520573003
 20
989800019.8611427
 10
4999711.480287415
 20
989800019.9385712
 10
4999711.433430161
 20
989800020.0121428
 10
4999711.380287341
 20
989800020.0814282
 10
4999711.321430138
 20
989800020.145714
 10
4999711.257144487
 20
989800020.2045713
 10
4999711.187858686
 20
989800020.257714
 10
4999711.114287311
 20
989800020.3045713
 10
4999711.036858833
 20
989800020.3448567
 10
4999710.956287318
 20
989800020.3782855
 10
4999710.873144461
 20
989800020.4044283
 10
4999710.787858728
 20
989800020.4234286
 10
4999710.701430122
 20
989800020.4347141
 10
4999710.61428728
 20
989800020.4385713
  0
LINE
  5
337
330
1E
100
AcDbEntity
  8
0
  6
C6CONTINUOUS
 62
     7
100
AcDbLine
 10
4999710.61428728
 20
989800020.4385713
 30
0.0
 11
4999709.614287389
 21
989800020.4385713
 31
0.0
  0
LINE
  5
338
330
1E
100
AcDbEntity
  8
0
  6
C6CONTINUOUS
 62
     7
100
AcDbLine
 10
4999709.614287389
 20
989800020.4385713
 30
0.0
 11
4999709.614287389
 21
989800021.9385712
 31
0.0
  0
LINE
  5
339
330
1E
100
AcDbEntity
  8
0
  6
C6CONTINUOUS
 62
     7
100
AcDbLine
 10
4999709.614287389
 20
989800011.9385716
 30
0.0
 11
4999702.614287464
 21
989800011.9385716
 31
0.0
  0
LINE
  5
33A
330
1E
100
AcDbEntity
  8
0
  6
C6CONTINUOUS
 62
     7
100
AcDbLine
 10
4999675.014287555
 20
989800012.9385714
 30
0.0
 11
4999676.114287519
 21
989800020.4385713
 31
0.0
  0
LINE
  5
33B
330
1E
100
AcDbEntity
  8
0
  6
C6CONTINUOUS
 62
     7
100
AcDbLine
 10
4999664.614287658
 20
989800019.4385714
 30
0.0
 11
4999664.614287658
 21
989800013.9385716
 31
0.0
  0
LWPOLYLINE
  5
33C
330
1E
100
AcDbEntity
  8
0
  6
C6CONTINUOUS
 62
     7
100
AcDbPolyline
 90
       19
 70
     0
 43
0.0
 10
4999665.614287549
 20
989800020.4385713
 10
4999665.527144708
 20
989800020.4347141
 10
4999665.440716101
 20
989800020.4234286
 10
4999665.35543054
 20
989800020.4044283
 10
4999665.27228768
 20
989800020.3782855
 10
4999665.191716166
 20
989800020.3448567
 10
4999665.114287688
 20
989800020.3045713
 10
4999665.040716143
 20
989800020.257714
 10
4999664.971430512
 20
989800020.2045713
 10
4999664.90714469
 20
989800020.145714
 10
4999664.848287658
 20
989800020.0814282
 10
4999664.795144836
 20
989800020.0121428
 10
4999664.748287583
 20
989800019.9385712
 10
4999664.708001826
 20
989800019.8611427
 10
4999664.674573328
 20
989800019.7805712
 10
4999664.64843039
 20
989800019.6974283
 10
4999664.629430473
 20
989800019.6121428
 10
4999664.61814476
 20
989800019.5257139
 10
4999664.614287658
 20
989800019.4385714
  0
LINE
  5
351
330
1E
100
AcDbEntity
  8
0
  6
C6CONTINUOUS
 62
     7
100
AcDbLine
 10
4999665.614287549
 20
989800020.4385713
 30
0.0
 11
4999666.614287612
 21
989800020.4385713
 31
0.0
  0
LINE
  5
352
330
1E
100
AcDbEntity
  8
0
  6
C6CONTINUOUS
 62
     7
100
AcDbLine
 10
4999666.614287612
 20
989800020.4385713
 30
0.0
 11
4999666.614287612
 21
989800021.9385712
 31
0.0
  0
LINE
  5
353
330
1E
100
AcDbEntity
  8
0
  6
C6CONTINUOUS
 62
     7
100
AcDbLine
 10
4999666.614287612
 20
989800011.9385716
 30
0.0
 11
4999673.614287535
 21
989800011.9385716
 31
0.0
  0
LWPOLYLINE
  5
354
330
1E
100
AcDbEntity
  8
0
  6
C6CONTINUOUS
 62
     7
100
AcDbPolyline
 90
       16
 70
     0
 43
0.0
 10
4999673.614287535
 20
989800011.9385716
 10
4999673.745001884
 20
989800011.9442855
 10
4999673.874858943
 20
989800011.9614282
 10
4999674.002430426
 20
989800011.9897146
 10
4999674.127287511
 20
989800012.0291428
 10
4999674.248144781
 20
989800012.0791428
 10
4999674.364287496
 20
989800012.1395712
 10
4999674.47471617
 20
989800012.209857
 10
4999674.578430466
 20
989800012.2894282
 10
4999674.67500191
 20
989800012.3778569
 10
4999674.763430339
 20
989800012.4744283
 10
4999674.843001858
 20
989800012.5781424
 10
4999674.913287485
 20
989800012.6885714
 10
4999674.973858917
 20
989800012.8047142
 10
4999675.023859039
 20
989800012.9255716
 10
4999675.036858981
 20
989800012.9625712
  0
LWPOLYLINE
  5
366
330
1E
100
AcDbEntity
  8
0
  6
C6CONTINUOUS
 62
     7
100
AcDbPolyline
 90
       19
 70
     0
 43
0.0
 10
4999664.614287658
 20
989800013.9385716
 10
4999664.621858982
 20
989800013.7642855
 10
4999664.644716169
 20
989800013.5912855
 10
4999664.682430412
 20
989800013.4210001
 10
4999664.734858996
 20
989800013.2545712
 10
4999664.801716163
 20
989800013.0934283
 10
4999664.882144798
 20
989800012.9385714
 10
4999664.976001847
 20
989800012.7914283
 10
4999665.082144779
 20
989800012.6529998
 10
4999665.200144773
 20
989800012.5244283
 10
4999665.328716248
 20
989800012.4064283
 10
4999665.4671448
 20
989800012.3002855
 10
4999665.614287549
 20
989800012.2064283
 10
4999665.769144673
 20
989800012.126
 10
4999665.930287532
 20
989800012.0591428
 10
4999666.096716132
 20
989800012.0067141
 10
4999666.267001832
 20
989800011.9689998
 10
4999666.440001929
 20
989800011.9461428
 10
4999666.614287611
 20
989800011.9385716
  0
LINE
  5
37B
330
1E
100
AcDbEntity
  8
0
  6
C6CONTINUOUS
 62
     7
100
AcDbLine
 10
4999685.61428743
 20
989800021.9385712
 30
0.0
 11
4999685.61428743
 21
989800020.4385713
 31
0.0
  0
LINE
  5
37C
330
1E
100
AcDbEntity
  8
0
  6
C6CONTINUOUS
 62
     7
100
AcDbLine
 10
4999690.6142874
 20
989800020.4385713
 30
0.0
 11
4999690.6142874
 21
989800021.9385712
 31
0.0
  0
LINE
  5
37D
330
1E
100
AcDbEntity
  8
0
  6
C6CONTINUOUS
 62
     7
100
AcDbLine
 10
4999690.6142874
 20
989800020.4385713
 30
0.0
 11
4999700.114287477
 21
989800020.4385713
 31
0.0
  0
LINE
  5
37E
330
1E
100
AcDbEntity
  8
0
  6
C6CONTINUOUS
 62
     7
100
AcDbLine
 10
4999676.114287519
 20
989800020.4385713
 30
0.0
 11
4999685.61428743
 21
989800020.4385713
 31
0.0
  0
LWPOLYLINE
  5
37F
330
1E
100
AcDbEntity
  8
0
  6
C6CONTINUOUS
 62
     7
100
AcDbPolyline
 90
       37
 70
     0
 43
0.0
 10
4999672.914287526
 20
989800017.4385712
 10
4999672.905430445
 20
989800017.6391427
 10
4999672.879430389
 20
989800017.8379998
 10
4999672.835859055
 20
989800018.033857
 10
4999672.775573213
 20
989800018.2251427
 10
4999672.698858971
 20
989800018.4105713
 10
4999672.606144627
 20
989800018.5885713
 10
4999672.498287639
 20
989800018.7577142
 10
4999672.376144779
 20
989800018.917
 10
4999672.240573335
 20
989800019.064857
 10
4999672.092716181
 20
989800019.2004284
 10
4999671.933430431
 20
989800019.3225716
 10
4999671.764287608
 20
989800019.4304287
 10
4999671.586287534
 20
989800019.5231428
 10
4999671.400859017
 20
989800019.5998571
 10
4999671.209573238
 20
989800019.6601428
 10
4999671.013716124
 20
989800019.703714
 10
4999670.814859022
 20
989800019.729714
 10
4999670.61428752
 20
989800019.7385712
 10
4999670.413859068
 20
989800019.729714
 10
4999670.214859087
 20
989800019.703714
 10
4999670.019001801
 20
989800019.6601428
 10
4999669.827716192
 20
989800019.5998571
 10
4999669.642287506
 20
989800019.5231428
 10
4999669.464287601
 20
989800019.4304287
 10
4999669.295144776
 20
989800019.3225716
 10
4999669.135859027
 20
989800019.2004284
 10
4999668.988001872
 20
989800019.064857
 10
4999668.85243043
 20
989800018.917
 10
4999668.730287568
 20
989800018.7577142
 10
4999668.622430412
 20
989800018.5885713
 10
4999668.529858949
 20
989800018.4105713
 10
4999668.453001825
 20
989800018.2251427
 10
4999668.392716156
 20
989800018.033857
 10
4999668.34914482
 20
989800017.8379998
 10
4999668.323144764
 20
989800017.6391427
 10
4999668.314287514
 20
989800017.4385712
  0
LWPOLYLINE
  5
3A6
330
1E
100
AcDbEntity
  8
0
  6
C6CONTINUOUS
 62
     7
100
AcDbPolyline
 90
       37
 70
     0
 43
0.0
 10
4999668.314287514
 20
989800016.4385717
 10
4999668.323144764
 20
989800016.2381427
 10
4999668.34914482
 20
989800016.0391427
 10
4999668.392716156
 20
989800015.8432855
 10
4999668.453001825
 20
989800015.652
 10
4999668.529858949
 20
989800015.4665712
 10
4999668.622430412
 20
989800015.2885712
 10
4999668.730287568
 20
989800015.1194283
 10
4999668.85243043
 20
989800014.9601426
 10
4999668.988001872
 20
989800014.8122855
 10
4999669.135859027
 20
989800014.6767143
 10
4999669.295144776
 20
989800014.5545712
 10
4999669.464287601
 20
989800014.446714
 10
4999669.642287506
 20
989800014.3541427
 10
4999669.827716192
 20
989800014.2772856
 10
4999670.019001801
 20
989800014.2169998
 10
4999670.214859087
 20
989800014.1734286
 10
4999670.413859068
 20
989800014.1474287
 10
4999670.61428752
 20
989800014.1385713
 10
4999670.814859022
 20
989800014.1474287
 10
4999671.013716124
 20
989800014.1734286
 10
4999671.209573238
 20
989800014.2169998
 10
4999671.400859017
 20
989800014.2772856
 10
4999671.586287534
 20
989800014.3541427
 10
4999671.764287608
 20
989800014.446714
 10
4999671.933430431
 20
989800014.5545712
 10
4999672.092716181
 20
989800014.6767143
 10
4999672.240573335
 20
989800014.8122855
 10
4999672.376144779
 20
989800014.9601426
 10
4999672.498287639
 20
989800015.1194283
 10
4999672.606144627
 20
989800015.2885712
 10
4999672.698858971
 20
989800015.4665712
 10
4999672.775573213
 20
989800015.652
 10
4999672.835859055
 20
989800015.8432855
 10
4999672.879430389
 20
989800016.0391427
 10
4999672.905430445
 20
989800016.2381427
 10
4999672.914287526
 20
989800016.4385717
  0
LINE
  5
3CD
330
1E
100
AcDbEntity
  8
0
  6
C6CONTINUOUS
 62
     7
100
AcDbLine
 10
4999668.314287514
 20
989800017.4385712
 30
0.0
 11
4999668.314287514
 21
989800016.4385713
 31
0.0
  0
LINE
  5
3CE
330
1E
100
AcDbEntity
  8
0
  6
C6CONTINUOUS
 62
     7
100
AcDbLine
 10
4999672.914287526
 20
989800017.4385712
 30
0.0
 11
4999672.914287526
 21
989800016.4385713
 31
0.0
  0
LINE
  5
3CF
330
1E
100
AcDbEntity
  8
0
  6
C6CONTINUOUS
 62
     7
100
AcDbLine
 10
4999710.114287418
 20
989800081.9385707
 30
0.0
 11
4999710.114287418
 21
989800090.9385707
 31
0.0
  0
LINE
  5
3D0
330
1E
100
AcDbEntity
  8
0
  6
C6CONTINUOUS
 62
     7
100
AcDbLine
 10
4999710.114287418
 20
989800090.9385707
 30
0.0
 11
4999711.11428731
 21
989800090.9385707
 31
0.0
  0
LINE
  5
3D1
330
1E
100
AcDbEntity
  8
0
  6
C6CONTINUOUS
 62
     7
100
AcDbLine
 10
4999711.11428731
 20
989800090.9385707
 30
0.0
 11
4999711.11428731
 21
989800081.9385707
 31
0.0
  0
LINE
  5
3D2
330
1E
100
AcDbEntity
  8
0
  6
C6CONTINUOUS
 62
     7
100
AcDbLine
 10
4999711.11428731
 20
989800081.9385707
 30
0.0
 11
4999710.114287418
 21
989800081.9385707
 31
0.0
  0
LINE
  5
3D3
330
1E
100
AcDbEntity
  8
0
  6
C6CONTINUOUS
 62
     7
100
AcDbLine
 10
4999665.114287688
 20
989800022.4385713
 30
0.0
 11
4999665.114287688
 21
989800101.4385707
 31
0.0
  0
LINE
  5
3D4
330
1E
100
AcDbEntity
  8
0
  6
C6CONTINUOUS
 62
     7
100
AcDbLine
 10
4999665.114287688
 20
989800101.4385707
 30
0.0
 11
4999711.11428731
 21
989800101.4385707
 31
0.0
  0
LINE
  5
3D5
330
1E
100
AcDbEntity
  8
0
  6
C6CONTINUOUS
 62
     7
100
AcDbLine
 10
4999711.11428731
 20
989800101.4385707
 30
0.0
 11
4999711.11428731
 21
989800022.4385713
 31
0.0
  0
LINE
  5
3D6
330
1E
100
AcDbEntity
  8
0
  6
C6CONTINUOUS
 62
     7
100
AcDbLine
 10
4999711.11428731
 20
989800022.4385713
 30
0.0
 11
4999665.114287688
 21
989800022.4385713
 31
0.0
  0
LINE
  5
3D7
330
1E
100
AcDbEntity
  8
0
  6
C6CONTINUOUS
 62
     7
100
AcDbLine
 10
4999665.114287688
 20
989800081.9385707
 30
0.0
 11
4999665.114287688
 21
989800090.9385707
 31
0.0
  0
LINE
  5
3D8
330
1E
100
AcDbEntity
  8
0
  6
C6CONTINUOUS
 62
     7
100
AcDbLine
 10
4999665.114287688
 20
989800090.9385707
 30
0.0
 11
4999666.11428758
 21
989800090.9385707
 31
0.0
  0
LINE
  5
3D9
330
1E
100
AcDbEntity
  8
0
  6
C6CONTINUOUS
 62
     7
100
AcDbLine
 10
4999666.11428758
 20
989800090.9385707
 30
0.0
 11
4999666.11428758
 21
989800081.9385707
 31
0.0
  0
LINE
  5
3DA
330
1E
100
AcDbEntity
  8
0
  6
C6CONTINUOUS
 62
     7
100
AcDbLine
 10
4999666.11428758
 20
989800081.9385707
 30
0.0
 11
4999665.114287688
 21
989800081.9385707
 31
0.0
  0
LINE
  5
3DB
330
1E
100
AcDbEntity
  8
0
  6
C6CONTINUOUS
 62
     7
100
AcDbLine
 10
4999705.614287308
 20
989800097.9385708
 30
0.0
 11
4999710.114287418
 21
989800097.9385708
 31
0.0
  0
LINE
  5
3DC
330
1E
100
AcDbEntity
  8
0
  6
C6CONTINUOUS
 62
     7
100
AcDbLine
 10
4999683.614287475
 20
989800084.9385708
 30
0.0
 11
4999683.614287475
 21
989800097.9385708
 31
0.0
  0
LINE
  5
3DD
330
1E
100
AcDbEntity
  8
0
  6
C6CONTINUOUS
 62
     7
100
AcDbLine
 10
4999683.614287475
 20
989800097.9385708
 30
0.0
 11
4999670.61428752
 21
989800097.9385708
 31
0.0
  0
LINE
  5
3DE
330
1E
100
AcDbEntity
  8
0
  6
C6CONTINUOUS
 62
     7
100
AcDbLine
 10
4999670.61428752
 20
989800097.9385708
 30
0.0
 11
4999670.61428752
 21
989800084.9385708
 31
0.0
  0
LINE
  5
3DF
330
1E
100
AcDbEntity
  8
0
  6
C6CONTINUOUS
 62
     7
100
AcDbLine
 10
4999670.61428752
 20
989800084.9385708
 30
0.0
 11
4999683.614287475
 21
989800084.9385708
 31
0.0
  0
LINE
  5
3E0
330
1E
100
AcDbEntity
  8
0
  6
C6CONTINUOUS
 62
     7
100
AcDbLine
 10
4999682.899716004
 20
989800096.4941424
 30
0.0
 11
4999682.899716004
 21
989800086.3829997
 31
0.0
  0
LWPOLYLINE
  5
3E1
330
1E
100
AcDbEntity
  8
0
  6
C6CONTINUOUS
 62
     7
100
AcDbPolyline
 90
       19
 70
     0
 43
0.0
 10
4999682.17757321
 20
989800085.6608566
 10
4999682.240430394
 20
989800085.6635707
 10
4999682.302858936
 20
989800085.6717137
 10
4999682.364430363
 20
989800085.6854279
 10
4999682.424573153
 20
989800085.7042852
 10
4999682.482716122
 20
989800085.7284277
 10
4999682.538573166
 20
989800085.7575707
 10
4999682.591716157
 20
989800085.7914279
 10
4999682.641716105
 20
989800085.8297137
 10
4999682.688144721
 20
989800085.872285
 10
4999682.73071606
 20
989800085.9187137
 10
4999682.769144708
 20
989800085.9687137
 10
4999682.803001848
 20
989800086.0218568
 10
4999682.832001721
 20
989800086.0778566
 10
4999682.856144668
 20
989800086.1359996
 10
4999682.875144586
 20
989800086.1961424
 10
4999682.888716051
 20
989800086.2575713
 10
4999682.897001778
 20
989800086.3199994
 10
4999682.899716004
 20
989800086.3829992
  0
LINE
  5
3F6
330
1E
100
AcDbEntity
  8
0
  6
C6CONTINUOUS
 62
     7
100
AcDbLine
 10
4999682.17757321
 20
989800085.6608566
 30
0.0
 11
4999672.066430361
 21
989800085.6608566
 31
0.0
  0
LWPOLYLINE
  5
3F7
330
1E
100
AcDbEntity
  8
0
  6
C6CONTINUOUS
 62
     7
100
AcDbPolyline
 90
       19
 70
     0
 43
0.0
 10
4999671.344144687
 20
989800086.3829992
 10
4999671.346859082
 20
989800086.3199994
 10
4999671.355144639
 20
989800086.2575713
 10
4999671.368858987
 20
989800086.1961424
 10
4999671.387716193
 20
989800086.1359996
 10
4999671.41185897
 20
989800086.0778566
 10
4999671.441001894
 20
989800086.0218568
 10
4999671.474859034
 20
989800085.9687137
 10
4999671.513144798
 20
989800085.9187137
 10
4999671.555716142
 20
989800085.872285
 10
4999671.602144753
 20
989800085.8297137
 10
4999671.652144706
 20
989800085.7914279
 10
4999671.705287525
 20
989800085.7575707
 10
4999671.76114474
 20
989800085.7284277
 10
4999671.819430418
 20
989800085.7042852
 10
4999671.879430497
 20
989800085.6854279
 10
4999671.941001925
 20
989800085.6717137
 10
4999672.003430467
 20
989800085.6635707
 10
4999672.066430361
 20
989800085.6608566
  0
LINE
  5
40C
330
1E
100
AcDbEntity
  8
0
  6
C6CONTINUOUS
 62
     7
100
AcDbLine
 10
4999671.344144687
 20
989800086.3829997
 30
0.0
 11
4999671.344144687
 21
989800096.4941424
 31
0.0
  0
LWPOLYLINE
  5
40D
330
1E
100
AcDbEntity
  8
0
  6
C6CONTINUOUS
 62
     7
100
AcDbPolyline
 90
       19
 70
     0
 43
0.0
 10
4999672.066430361
 20
989800097.2162851
 10
4999672.003430467
 20
989800097.2135706
 10
4999671.941001925
 20
989800097.2054278
 10
4999671.879430497
 20
989800097.1917136
 10
4999671.819430418
 20
989800097.1728563
 10
4999671.76114474
 20
989800097.1487141
 10
4999671.705287525
 20
989800097.1195706
 10
4999671.652144706
 20
989800097.0857136
 10
4999671.602144753
 20
989800097.0474278
 10
4999671.555716142
 20
989800097.0048565
 10
4999671.513144798
 20
989800096.9584279
 10
4999671.474859034
 20
989800096.9084279
 10
4999671.441001894
 20
989800096.8552851
 10
4999671.41185897
 20
989800096.7992851
 10
4999671.387716193
 20
989800096.7411423
 10
4999671.368858987
 20
989800096.6809991
 10
4999671.355144639
 20
989800096.6195708
 10
4999671.346859082
 20
989800096.5571423
 10
4999671.344144687
 20
989800096.4941422
  0
LINE
  5
422
330
1E
100
AcDbEntity
  8
0
  6
C6CONTINUOUS
 62
     7
100
AcDbLine
 10
4999672.066430361
 20
989800097.2162851
 30
0.0
 11
4999682.17757321
 21
989800097.2162851
 31
0.0
  0
LWPOLYLINE
  5
423
330
1E
100
AcDbEntity
  8
0
  6
C6CONTINUOUS
 62
     7
100
AcDbPolyline
 90
       19
 70
     0
 43
0.0
 10
4999682.899716004
 20
989800096.4941422
 10
4999682.897001778
 20
989800096.5571423
 10
4999682.888716051
 20
989800096.6195708
 10
4999682.875144586
 20
989800096.6809991
 10
4999682.856144668
 20
989800096.7411423
 10
4999682.832001721
 20
989800096.7992851
 10
4999682.803001848
 20
989800096.8552851
 10
4999682.769144708
 20
989800096.9084279
 10
4999682.73071606
 20
989800096.9584279
 10
4999682.688144721
 20
989800097.0048565
 10
4999682.641716105
 20
989800097.0474278
 10
4999682.591716157
 20
989800097.0857136
 10
4999682.538573166
 20
989800097.1195706
 10
4999682.482716122
 20
989800097.1487141
 10
4999682.424573153
 20
989800097.1728563
 10
4999682.364430363
 20
989800097.1917136
 10
4999682.302858936
 20
989800097.2054278
 10
4999682.240430394
 20
989800097.2135706
 10
4999682.17757321
 20
989800097.2162851
  0
LINE
  5
438
330
1E
100
AcDbEntity
  8
0
  6
C6CONTINUOUS
 62
     7
100
AcDbLine
 10
4999678.857573228
 20
989800089.7475707
 30
0.0
 11
4999679.479287476
 21
989800090.6518564
 31
0.0
  0
LINE
  5
439
330
1E
100
AcDbEntity
  8
0
  6
C6CONTINUOUS
 62
     7
100
AcDbLine
 10
4999675.595573334
 20
989800093.3211422
 30
0.0
 11
4999674.973858916
 21
989800092.4168563
 31
0.0
  0
LINE
  5
43A
330
1E
100
AcDbEntity
  8
0
  6
C6CONTINUOUS
 62
     7
100
AcDbLine
 10
4999675.187001888
 20
989800089.6067136
 30
0.0
 11
4999676.158001907
 21
989800088.939428
 31
0.0
  0
LINE
  5
43B
330
1E
100
AcDbEntity
  8
0
  6
C6CONTINUOUS
 62
     7
100
AcDbLine
 10
4999676.158001907
 20
989800088.939428
 30
0.0
 11
4999677.401287522
 21
989800090.7485707
 31
0.0
  0
LINE
  5
43C
330
1E
100
AcDbEntity
  8
0
  6
C6CONTINUOUS
 62
     7
100
AcDbLine
 10
4999677.401287522
 20
989800090.7485707
 30
0.0
 11
4999678.857573228
 21
989800089.7475707
 31
0.0
  0
LINE
  5
43D
330
1E
100
AcDbEntity
  8
0
  6
C6CONTINUOUS
 62
     7
100
AcDbLine
 10
4999679.479287476
 20
989800090.6518564
 30
0.0
 11
4999678.023001769
 21
989800091.6528566
 31
0.0
  0
LINE
  5
43E
330
1E
100
AcDbEntity
  8
0
  6
C6CONTINUOUS
 62
     7
100
AcDbLine
 10
4999678.023001769
 20
989800091.6528566
 30
0.0
 11
4999679.266287554
 21
989800093.4619991
 31
0.0
  0
LINE
  5
43F
330
1E
100
AcDbEntity
  8
0
  6
C6CONTINUOUS
 62
     7
100
AcDbLine
 10
4999679.266287554
 20
989800093.4619991
 30
0.0
 11
4999678.295287536
 21
989800094.1292851
 31
0.0
  0
LINE
  5
440
330
1E
100
AcDbEntity
  8
0
  6
C6CONTINUOUS
 62
     7
100
AcDbLine
 10
4999678.295287536
 20
989800094.1292851
 30
0.0
 11
4999677.052001751
 21
989800092.3201424
 31
0.0
  0
LINE
  5
441
330
1E
100
AcDbEntity
  8
0
  6
C6CONTINUOUS
 62
     7
100
AcDbLine
 10
4999677.052001751
 20
989800092.3201424
 30
0.0
 11
4999675.595573334
 21
989800093.3211422
 31
0.0
  0
LINE
  5
442
330
1E
100
AcDbEntity
  8
0
  6
C6CONTINUOUS
 62
     7
100
AcDbLine
 10
4999674.973858916
 20
989800092.4168563
 30
0.0
 11
4999676.430287504
 21
989800091.4158565
 31
0.0
  0
LINE
  5
443
330
1E
100
AcDbEntity
  8
0
  6
C6CONTINUOUS
 62
     7
100
AcDbLine
 10
4999676.430287504
 20
989800091.4158565
 30
0.0
 11
4999675.187001888
 21
989800089.6067136
 31
0.0
  0
LWPOLYLINE
  5
444
330
1E
100
AcDbEntity
  8
0
  6
C6CONTINUOUS
 62
     7
100
AcDbPolyline
 90
       73
 70
     0
 43
0.0
 10
4999677.114287583
 20
989800094.9385707
 10
4999676.809287552
 20
989800094.9252852
 10
4999676.506573274
 20
989800094.885428
 10
4999676.208430331
 20
989800094.8192851
 10
4999675.917287529
 20
989800094.727428
 10
4999675.635144688
 20
989800094.6107137
 10
4999675.364287559
 20
989800094.4697136
 10
4999675.106716137
 20
989800094.3055707
 10
4999674.86457329
 20
989800094.1197137
 10
4999674.63943037
 20
989800093.9134279
 10
4999674.433144654
 20
989800093.6882851
 10
4999674.247287497
 20
989800093.4461425
 10
4999674.083144652
 20
989800093.1885707
 10
4999673.942144755
 20
989800092.9177136
 10
4999673.825430347
 20
989800092.6355706
 10
4999673.733573287
 20
989800092.3444277
 10
4999673.667430356
 20
989800092.0462852
 10
4999673.62757324
 20
989800091.7435712
 10
4999673.614287535
 20
989800091.4385708
 10
4999673.62757324
 20
989800091.1335707
 10
4999673.667430356
 20
989800090.8308564
 10
4999673.733573287
 20
989800090.5327137
 10
4999673.825430347
 20
989800090.2415708
 10
4999673.942144755
 20
989800089.9594279
 10
4999674.083144652
 20
989800089.688571
 10
4999674.247287497
 20
989800089.4309994
 10
4999674.433144654
 20
989800089.1888566
 10
4999674.63943037
 20
989800088.9637136
 10
4999674.86457329
 20
989800088.7574275
 10
4999675.106716137
 20
989800088.5715708
 10
4999675.364287559
 20
989800088.407428
 10
4999675.635144688
 20
989800088.2664279
 10
4999675.917287529
 20
989800088.1497136
 10
4999676.208430331
 20
989800088.0578566
 10
4999676.506573274
 20
989800087.9917136
 10
4999676.809287552
 20
989800087.9518566
 10
4999677.114287583
 20
989800087.938571
 10
4999677.419287613
 20
989800087.9518566
 10
4999677.722001892
 20
989800087.9917136
 10
4999678.020144664
 20
989800088.0578566
 10
4999678.311287467
 20
989800088.1497136
 10
4999678.593430309
 20
989800088.2664279
 10
4999678.864287605
 20
989800088.407428
 10
4999679.121859029
 20
989800088.5715708
 10
4999679.364001877
 20
989800088.7574275
 10
4999679.589144626
 20
989800088.9637136
 10
4999679.795430338
 20
989800089.1888566
 10
4999679.981287498
 20
989800089.4309994
 10
4999680.145430345
 20
989800089.688571
 10
4999680.286430409
 20
989800089.9594279
 10
4999680.403144648
 20
989800090.2415708
 10
4999680.495001877
 20
989800090.5327137
 10
4999680.561144641
 20
989800090.8308564
 10
4999680.601001753
 20
989800091.1335707
 10
4999680.61428746
 20
989800091.4385708
 10
4999680.601001753
 20
989800091.7435712
 10
4999680.561144641
 20
989800092.0462852
 10
4999680.495001877
 20
989800092.3444277
 10
4999680.403144648
 20
989800092.6355706
 10
4999680.286430409
 20
989800092.9177136
 10
4999680.145430345
 20
989800093.1885707
 10
4999679.981287498
 20
989800093.4461425
 10
4999679.795430338
 20
989800093.6882851
 10
4999679.589144626
 20
989800093.9134279
 10
4999679.364001877
 20
989800094.1197137
 10
4999679.121859029
 20
989800094.3055707
 10
4999678.864287605
 20
989800094.4697136
 10
4999678.593430309
 20
989800094.6107137
 10
4999678.311287467
 20
989800094.727428
 10
4999678.020144664
 20
989800094.8192851
 10
4999677.722001892
 20
989800094.885428
 10
4999677.419287613
 20
989800094.9252852
 10
4999677.114287583
 20
989800094.9385707
  0
LINE
  5
48F
330
1E
100
AcDbEntity
  8
0
  6
C6CONTINUOUS
 62
     7
100
AcDbLine
 10
4999676.614287551
 20
989800094.9385707
 30
0.0
 11
4999676.614287551
 21
989800096.9385707
 31
0.0
  0
LINE
  5
490
330
1E
100
AcDbEntity
  8
0
  6
C6CONTINUOUS
 62
     7
100
AcDbLine
 10
4999677.614287614
 20
989800094.9385707
 30
0.0
 11
4999677.614287614
 21
989800096.9385707
 31
0.0
  0
LINE
  5
491
330
1E
100
AcDbEntity
  8
0
  6
C6CONTINUOUS
 62
     7
100
AcDbLine
 10
4999673.614287535
 20
989800091.938571
 30
0.0
 11
4999671.614287581
 21
989800091.938571
 31
0.0
  0
LINE
  5
492
330
1E
100
AcDbEntity
  8
0
  6
C6CONTINUOUS
 62
     7
100
AcDbLine
 10
4999673.614287535
 20
989800090.9385707
 30
0.0
 11
4999671.614287581
 21
989800090.9385707
 31
0.0
  0
LINE
  5
493
330
1E
100
AcDbEntity
  8
0
  6
C6CONTINUOUS
 62
     7
100
AcDbLine
 10
4999676.614287551
 20
989800087.9385707
 30
0.0
 11
4999676.614287551
 21
989800085.938571
 31
0.0
  0
LINE
  5
494
330
1E
100
AcDbEntity
  8
0
  6
C6CONTINUOUS
 62
     7
100
AcDbLine
 10
4999677.614287614
 20
989800087.9385707
 30
0.0
 11
4999677.614287614
 21
989800085.938571
 31
0.0
  0
LINE
  5
495
330
1E
100
AcDbEntity
  8
0
  6
C6CONTINUOUS
 62
     7
100
AcDbLine
 10
4999682.614287584
 20
989800091.938571
 30
0.0
 11
4999680.614287458
 21
989800091.938571
 31
0.0
  0
LINE
  5
496
330
1E
100
AcDbEntity
  8
0
  6
C6CONTINUOUS
 62
     7
100
AcDbLine
 10
4999682.614287584
 20
989800090.9385707
 30
0.0
 11
4999680.614287458
 21
989800090.9385707
 31
0.0
  0
LINE
  5
497
330
1E
100
AcDbEntity
  8
0
  6
C6CONTINUOUS
 62
     7
100
AcDbLine
 10
4999705.614287308
 20
989800084.9385708
 30
0.0
 11
4999705.614287308
 21
989800097.9385708
 31
0.0
  0
LINE
  5
498
330
1E
100
AcDbEntity
  8
0
  6
C6CONTINUOUS
 62
     7
100
AcDbLine
 10
4999705.614287308
 20
989800097.9385708
 30
0.0
 11
4999692.614287523
 21
989800097.9385708
 31
0.0
  0
LINE
  5
499
330
1E
100
AcDbEntity
  8
0
  6
C6CONTINUOUS
 62
     7
100
AcDbLine
 10
4999692.614287523
 20
989800097.9385708
 30
0.0
 11
4999692.614287523
 21
989800084.9385708
 31
0.0
  0
LINE
  5
49A
330
1E
100
AcDbEntity
  8
0
  6
C6CONTINUOUS
 62
     7
100
AcDbLine
 10
4999692.614287523
 20
989800084.9385708
 30
0.0
 11
4999705.614287308
 21
989800084.9385708
 31
0.0
  0
LINE
  5
49B
330
1E
100
AcDbEntity
  8
0
  6
C6CONTINUOUS
 62
     7
100
AcDbLine
 10
4999704.899716008
 20
989800096.4941424
 30
0.0
 11
4999704.899716008
 21
989800086.3829997
 31
0.0
  0
LWPOLYLINE
  5
49C
330
1E
100
AcDbEntity
  8
0
  6
C6CONTINUOUS
 62
     7
100
AcDbPolyline
 90
       19
 70
     0
 43
0.0
 10
4999704.177573042
 20
989800085.6608566
 10
4999704.240430228
 20
989800085.6635707
 10
4999704.30285877
 20
989800085.6717137
 10
4999704.364430199
 20
989800085.6854279
 10
4999704.424573157
 20
989800085.7042852
 10
4999704.482715954
 20
989800085.7284277
 10
4999704.53857317
 20
989800085.7575707
 10
4999704.591715989
 20
989800085.7914279
 10
4999704.641715942
 20
989800085.8297137
 10
4999704.688144555
 20
989800085.872285
 10
4999704.730715895
 20
989800085.9187137
 10
4999704.769144542
 20
989800085.9687137
 10
4999704.803001683
 20
989800086.0218568
 10
4999704.832001727
 20
989800086.0778566
 10
4999704.856144503
 20
989800086.1359996
 10
4999704.87514459
 20
989800086.1961424
 10
4999704.888715887
 20
989800086.2575713
 10
4999704.897001612
 20
989800086.3199994
 10
4999704.899716008
 20
989800086.3829992
  0
LINE
  5
4B1
330
1E
100
AcDbEntity
  8
0
  6
C6CONTINUOUS
 62
     7
100
AcDbLine
 10
4999704.177573042
 20
989800085.6608566
 30
0.0
 11
4999694.066430366
 21
989800085.6608566
 31
0.0
  0
LWPOLYLINE
  5
4B2
330
1E
100
AcDbEntity
  8
0
  6
C6CONTINUOUS
 62
     7
100
AcDbPolyline
 90
       19
 70
     0
 43
0.0
 10
4999693.344144521
 20
989800086.3829992
 10
4999693.346858917
 20
989800086.3199994
 10
4999693.355144644
 20
989800086.2575713
 10
4999693.368858821
 20
989800086.1961424
 10
4999693.387716027
 20
989800086.1359996
 10
4999693.411858801
 20
989800086.0778566
 10
4999693.441001729
 20
989800086.0218568
 10
4999693.474858869
 20
989800085.9687137
 10
4999693.513144634
 20
989800085.9187137
 10
4999693.555715975
 20
989800085.872285
 10
4999693.602144588
 20
989800085.8297137
 10
4999693.65214454
 20
989800085.7914279
 10
4999693.705287358
 20
989800085.7575707
 10
4999693.761144574
 20
989800085.7284277
 10
4999693.819430254
 20
989800085.7042852
 10
4999693.879430331
 20
989800085.6854279
 10
4999693.94100176
 20
989800085.6717137
 10
4999694.003430301
 20
989800085.6635707
 10
4999694.066430366
 20
989800085.6608566
  0
LINE
  5
4C7
330
1E
100
AcDbEntity
  8
0
  6
C6CONTINUOUS
 62
     7
100
AcDbLine
 10
4999693.344144521
 20
989800086.3829997
 30
0.0
 11
4999693.344144521
 21
989800096.4941424
 31
0.0
  0
LWPOLYLINE
  5
4C8
330
1E
100
AcDbEntity
  8
0
  6
C6CONTINUOUS
 62
     7
100
AcDbPolyline
 90
       19
 70
     0
 43
0.0
 10
4999694.066430366
 20
989800097.2162851
 10
4999694.003430301
 20
989800097.2135706
 10
4999693.94100176
 20
989800097.2054278
 10
4999693.879430331
 20
989800097.1917136
 10
4999693.819430254
 20
989800097.1728563
 10
4999693.761144574
 20
989800097.1487141
 10
4999693.705287358
 20
989800097.1195706
 10
4999693.65214454
 20
989800097.0857136
 10
4999693.602144588
 20
989800097.0474278
 10
4999693.555715975
 20
989800097.0048565
 10
4999693.513144634
 20
989800096.9584279
 10
4999693.474858869
 20
989800096.9084279
 10
4999693.441001729
 20
989800096.8552851
 10
4999693.411858801
 20
989800096.7992851
 10
4999693.387716027
 20
989800096.7411423
 10
4999693.368858821
 20
989800096.6809991
 10
4999693.355144644
 20
989800096.6195708
 10
4999693.346858917
 20
989800096.5571423
 10
4999693.344144521
 20
989800096.4941422
  0
LINE
  5
4DD
330
1E
100
AcDbEntity
  8
0
  6
C6CONTINUOUS
 62
     7
100
AcDbLine
 10
4999694.066430366
 20
989800097.2162851
 30
0.0
 11
4999704.177573042
 21
989800097.2162851
 31
0.0
  0
LWPOLYLINE
  5
4DE
330
1E
100
AcDbEntity
  8
0
  6
C6CONTINUOUS
 62
     7
100
AcDbPolyline
 90
       19
 70
     0
 43
0.0
 10
4999704.899716008
 20
989800096.4941422
 10
4999704.897001612
 20
989800096.5571423
 10
4999704.888715887
 20
989800096.6195708
 10
4999704.87514459
 20
989800096.6809991
 10
4999704.856144503
 20
989800096.7411423
 10
4999704.832001727
 20
989800096.7992851
 10
4999704.803001683
 20
989800096.8552851
 10
4999704.769144542
 20
989800096.9084279
 10
4999704.730715895
 20
989800096.9584279
 10
4999704.688144555
 20
989800097.0048565
 10
4999704.641715942
 20
989800097.0474278
 10
4999704.591715989
 20
989800097.0857136
 10
4999704.53857317
 20
989800097.1195706
 10
4999704.482715954
 20
989800097.1487141
 10
4999704.424573157
 20
989800097.1728563
 10
4999704.364430199
 20
989800097.1917136
 10
4999704.30285877
 20
989800097.2054278
 10
4999704.240430228
 20
989800097.2135706
 10
4999704.177573042
 20
989800097.2162851
  0
LINE
  5
4F3
330
1E
100
AcDbEntity
  8
0
  6
C6CONTINUOUS
 62
     7
100
AcDbLine
 10
4999700.857573063
 20
989800089.7475707
 30
0.0
 11
4999701.479287478
 21
989800090.6518564
 31
0.0
  0
LINE
  5
4F4
330
1E
100
AcDbEntity
  8
0
  6
C6CONTINUOUS
 62
     7
100
AcDbLine
 10
4999697.595573168
 20
989800093.3211422
 30
0.0
 11
4999696.973858921
 21
989800092.4168563
 31
0.0
  0
LINE
  5
4F5
330
1E
100
AcDbEntity
  8
0
  6
C6CONTINUOUS
 62
     7
100
AcDbLine
 10
4999697.187001723
 20
989800089.6067136
 30
0.0
 11
4999698.158001741
 21
989800088.939428
 31
0.0
  0
LINE
  5
4F6
330
1E
100
AcDbEntity
  8
0
  6
C6CONTINUOUS
 62
     7
100
AcDbLine
 10
4999698.158001741
 20
989800088.939428
 30
0.0
 11
4999699.401287355
 21
989800090.7485707
 31
0.0
  0
LINE
  5
4F7
330
1E
100
AcDbEntity
  8
0
  6
C6CONTINUOUS
 62
     7
100
AcDbLine
 10
4999699.401287355
 20
989800090.7485707
 30
0.0
 11
4999700.857573063
 21
989800089.7475707
 31
0.0
  0
LINE
  5
4F8
330
1E
100
AcDbEntity
  8
0
  6
C6CONTINUOUS
 62
     7
100
AcDbLine
 10
4999701.479287478
 20
989800090.6518564
 30
0.0
 11
4999700.023001774
 21
989800091.6528566
 31
0.0
  0
LINE
  5
4F9
330
1E
100
AcDbEntity
  8
0
  6
C6CONTINUOUS
 62
     7
100
AcDbLine
 10
4999700.023001774
 20
989800091.6528566
 30
0.0
 11
4999701.266287388
 21
989800093.4619991
 31
0.0
  0
LINE
  5
4FA
330
1E
100
AcDbEntity
  8
0
  6
C6CONTINUOUS
 62
     7
100
AcDbLine
 10
4999701.266287388
 20
989800093.4619991
 30
0.0
 11
4999700.295287369
 21
989800094.1292851
 31
0.0
  0
LINE
  5
4FB
330
1E
100
AcDbEntity
  8
0
  6
C6CONTINUOUS
 62
     7
100
AcDbLine
 10
4999700.295287369
 20
989800094.1292851
 30
0.0
 11
4999699.052001757
 21
989800092.3201424
 31
0.0
  0
LINE
  5
4FC
330
1E
100
AcDbEntity
  8
0
  6
C6CONTINUOUS
 62
     7
100
AcDbLine
 10
4999699.052001757
 20
989800092.3201424
 30
0.0
 11
4999697.595573168
 21
989800093.3211422
 31
0.0
  0
LINE
  5
4FD
330
1E
100
AcDbEntity
  8
0
  6
C6CONTINUOUS
 62
     7
100
AcDbLine
 10
4999696.973858921
 20
989800092.4168563
 30
0.0
 11
4999698.430287336
 21
989800091.4158565
 31
0.0
  0
LINE
  5
4FE
330
1E
100
AcDbEntity
  8
0
  6
C6CONTINUOUS
 62
     7
100
AcDbLine
 10
4999698.430287336
 20
989800091.4158565
 30
0.0
 11
4999697.187001723
 21
989800089.6067136
 31
0.0
  0
LWPOLYLINE
  5
4FF
330
1E
100
AcDbEntity
  8
0
  6
C6CONTINUOUS
 62
     7
100
AcDbPolyline
 90
       73
 70
     0
 43
0.0
 10
4999699.114287416
 20
989800094.9385707
 10
4999698.809287386
 20
989800094.9252852
 10
4999698.506573107
 20
989800094.885428
 10
4999698.208430337
 20
989800094.8192851
 10
4999697.917287361
 20
989800094.727428
 10
4999697.635144521
 20
989800094.6107137
 10
4999697.364287393
 20
989800094.4697136
 10
4999697.106715968
 20
989800094.3055707
 10
4999696.864573123
 20
989800094.1197137
 10
4999696.639430204
 20
989800093.9134279
 10
4999696.433144489
 20
989800093.6882851
 10
4999696.247287499
 20
989800093.4461425
 10
4999696.083144655
 20
989800093.1885707
 10
4999695.942144589
 20
989800092.9177136
 10
4999695.82543035
 20
989800092.6355706
 10
4999695.733573122
 20
989800092.3444277
 10
4999695.667430358
 20
989800092.0462852
 10
4999695.627573075
 20
989800091.7435712
 10
4999695.614287369
 20
989800091.4385708
 10
4999695.627573075
 20
989800091.1335707
 10
4999695.667430358
 20
989800090.8308564
 10
4999695.733573122
 20
989800090.5327137
 10
4999695.82543035
 20
989800090.2415708
 10
4999695.942144589
 20
989800089.9594279
 10
4999696.083144655
 20
989800089.688571
 10
4999696.247287499
 20
989800089.4309994
 10
4999696.433144489
 20
989800089.1888566
 10
4999696.639430204
 20
989800088.9637136
 10
4999696.864573123
 20
989800088.7574275
 10
4999697.106715968
 20
989800088.5715708
 10
4999697.364287393
 20
989800088.407428
 10
4999697.635144521
 20
989800088.2664279
 10
4999697.917287361
 20
989800088.1497136
 10
4999698.208430337
 20
989800088.0578566
 10
4999698.506573107
 20
989800087.9917136
 10
4999698.809287386
 20
989800087.9518566
 10
4999699.114287416
 20
989800087.938571
 10
4999699.419287447
 20
989800087.9518566
 10
4999699.722001726
 20
989800087.9917136
 10
4999700.020144498
 20
989800088.0578566
 10
4999700.31128747
 20
989800088.1497136
 10
4999700.593430311
 20
989800088.2664279
 10
4999700.86428744
 20
989800088.407428
 10
4999701.121858863
 20
989800088.5715708
 10
4999701.36400171
 20
989800088.7574275
 10
4999701.589144459
 20
989800088.9637136
 10
4999701.795430174
 20
989800089.1888566
 10
4999701.981287333
 20
989800089.4309994
 10
4999702.145430178
 20
989800089.688571
 10
4999702.286430244
 20
989800089.9594279
 10
4999702.403144483
 20
989800090.2415708
 10
4999702.495001711
 20
989800090.5327137
 10
4999702.561144473
 20
989800090.8308564
 10
4999702.601001758
 20
989800091.1335707
 10
4999702.614287464
 20
989800091.4385708
 10
4999702.601001758
 20
989800091.7435712
 10
4999702.561144473
 20
989800092.0462852
 10
4999702.495001711
 20
989800092.3444277
 10
4999702.403144483
 20
989800092.6355706
 10
4999702.286430244
 20
989800092.9177136
 10
4999702.145430178
 20
989800093.1885707
 10
4999701.981287333
 20
989800093.4461425
 10
4999701.795430174
 20
989800093.6882851
 10
4999701.589144459
 20
989800093.9134279
 10
4999701.36400171
 20
989800094.1197137
 10
4999701.121858863
 20
989800094.3055707
 10
4999700.86428744
 20
989800094.4697136
 10
4999700.593430311
 20
989800094.6107137
 10
4999700.31128747
 20
989800094.727428
 10
4999700.020144498
 20
989800094.8192851
 10
4999699.722001726
 20
989800094.885428
 10
4999699.419287447
 20
989800094.9252852
 10
4999699.114287416
 20
989800094.9385707
  0
LINE
  5
54A
330
1E
100
AcDbEntity
  8
0
  6
C6CONTINUOUS
 62
     7
100
AcDbLine
 10
4999698.614287384
 20
989800094.9385707
 30
0.0
 11
4999698.614287384
 21
989800096.9385707
 31
0.0
  0
LINE
  5
54B
330
1E
100
AcDbEntity
  8
0
  6
C6CONTINUOUS
 62
     7
100
AcDbLine
 10
4999699.614287449
 20
989800094.9385707
 30
0.0
 11
4999699.614287449
 21
989800096.9385707
 31
0.0
  0
LINE
  5
54C
330
1E
100
AcDbEntity
  8
0
  6
C6CONTINUOUS
 62
     7
100
AcDbLine
 10
4999695.61428737
 20
989800091.938571
 30
0.0
 11
4999693.614287416
 21
989800091.938571
 31
0.0
  0
LINE
  5
54D
330
1E
100
AcDbEntity
  8
0
  6
C6CONTINUOUS
 62
     7
100
AcDbLine
 10
4999695.61428737
 20
989800090.9385707
 30
0.0
 11
4999693.614287416
 21
989800090.9385707
 31
0.0
  0
LINE
  5
54E
330
1E
100
AcDbEntity
  8
0
  6
C6CONTINUOUS
 62
     7
100
AcDbLine
 10
4999698.614287384
 20
989800087.9385707
 30
0.0
 11
4999698.614287384
 21
989800085.938571
 31
0.0
  0
LINE
  5
54F
330
1E
100
AcDbEntity
  8
0
  6
C6CONTINUOUS
 62
     7
100
AcDbLine
 10
4999699.614287449
 20
989800087.9385707
 30
0.0
 11
4999699.614287449
 21
989800085.938571
 31
0.0
  0
LINE
  5
550
330
1E
100
AcDbEntity
  8
0
  6
C6CONTINUOUS
 62
     7
100
AcDbLine
 10
4999704.614287416
 20
989800091.938571
 30
0.0
 11
4999702.614287464
 21
989800091.938571
 31
0.0
  0
LINE
  5
551
330
1E
100
AcDbEntity
  8
0
  6
C6CONTINUOUS
 62
     7
100
AcDbLine
 10
4999704.614287416
 20
989800090.9385707
 30
0.0
 11
4999702.614287464
 21
989800090.9385707
 31
0.0
  0
LWPOLYLINE
  5
552
330
1E
100
AcDbEntity
  8
0
  6
C6CONTINUOUS
 62
     7
100
AcDbPolyline
 90
       19
 70
     0
 43
0.0
 10
4999711.614287341
 20
989800109.9385707
 10
4999711.606715846
 20
989800110.1128564
 10
4999711.583858831
 20
989800110.2858565
 10
4999711.546144417
 20
989800110.4561419
 10
4999711.493715832
 20
989800110.6225708
 10
4999711.426858835
 20
989800110.7837137
 10
4999711.346430201
 20
989800110.9385708
 10
4999711.252572981
 20
989800111.0857135
 10
4999711.146430222
 20
989800111.2241423
 10
4999711.028430227
 20
989800111.3527136
 10
4999710.89985875
 20
989800111.4707136
 10
4999710.7614302
 20
989800111.5768565
 10
4999710.61428728
 20
989800111.6707137
 10
4999710.459430156
 20
989800111.7511423
 10
4999710.298287296
 20
989800111.8179994
 10
4999710.131858697
 20
989800111.8704279
 10
4999709.961572997
 20
989800111.9081419
 10
4999709.788573071
 20
989800111.9309991
 10
4999709.614287389
 20
989800111.9385707
  0
LWPOLYLINE
  5
567
330
1E
100
AcDbEntity
  8
0
  6
C6CONTINUOUS
 62
     7
100
AcDbPolyline
 90
       16
 70
     0
 43
0.0
 10
4999702.614287464
 20
989800111.9385707
 10
4999702.483573116
 20
989800111.9328563
 10
4999702.353858763
 20
989800111.9157136
 10
4999702.226144575
 20
989800111.8874276
 10
4999702.101287319
 20
989800111.848142
 10
4999701.980430216
 20
989800111.7981422
 10
4999701.864287332
 20
989800111.7375708
 10
4999701.753858828
 20
989800111.6672848
 10
4999701.650144534
 20
989800111.5877132
 10
4999701.553573087
 20
989800111.4992851
 10
4999701.465144489
 20
989800111.4027136
 10
4999701.385573141
 20
989800111.2989991
 10
4999701.315287344
 20
989800111.1885706
 10
4999701.254858794
 20
989800111.0724278
 10
4999701.204858841
 20
989800110.9515707
 10
4999701.191858899
 20
989800110.9145706
  0
LINE
  5
579
330
1E
100
AcDbEntity
  8
0
  6
C6CONTINUOUS
 62
     7
100
AcDbLine
 10
4999701.214287445
 20
989800110.9385708
 30
0.0
 11
4999700.114287477
 21
989800103.4385707
 31
0.0
  0
LINE
  5
57A
330
1E
100
AcDbEntity
  8
0
  6
C6CONTINUOUS
 62
     7
100
AcDbLine
 10
4999711.614287342
 20
989800104.4385708
 30
0.0
 11
4999711.614287342
 21
989800109.9385707
 31
0.0
  0
LWPOLYLINE
  5
57B
330
1E
100
AcDbEntity
  8
0
  6
C6CONTINUOUS
 62
     7
100
AcDbPolyline
 90
       19
 70
     0
 43
0.0
 10
4999710.61428728
 20
989800103.4385707
 10
4999710.701430122
 20
989800103.4424279
 10
4999710.787858728
 20
989800103.4537136
 10
4999710.873144461
 20
989800103.4727137
 10
4999710.956287318
 20
989800103.4988563
 10
4999711.036858833
 20
989800103.5322852
 10
4999711.114287311
 20
989800103.5725707
 10
4999711.187858686
 20
989800103.619428
 10
4999711.257144487
 20
989800103.6725707
 10
4999711.321430138
 20
989800103.7314282
 10
4999711.380287341
 20
989800103.7957136
 10
4999711.433430161
 20
989800103.8649992
 10
4999711.480287415
 20
989800103.9385707
 10
4999711.520573003
 20
989800104.0159991
 10
4999711.554001672
 20
989800104.0965707
 10
4999711.580144439
 20
989800104.1797137
 10
4999711.599144525
 20
989800104.2649994
 10
4999711.610430241
 20
989800104.3514275
 10
4999711.614287341
 20
989800104.4385713
  0
LINE
  5
590
330
1E
100
AcDbEntity
  8
0
  6
C6CONTINUOUS
 62
     7
100
AcDbLine
 10
4999710.61428728
 20
989800103.4385707
 30
0.0
 11
4999709.614287389
 21
989800103.4385707
 31
0.0
  0
LINE
  5
591
330
1E
100
AcDbEntity
  8
0
  6
C6CONTINUOUS
 62
     7
100
AcDbLine
 10
4999709.614287389
 20
989800103.4385707
 30
0.0
 11
4999709.614287389
 21
989800101.9385707
 31
0.0
  0
LINE
  5
592
330
1E
100
AcDbEntity
  8
0
  6
C6CONTINUOUS
 62
     7
100
AcDbLine
 10
4999709.614287389
 20
989800111.9385707
 30
0.0
 11
4999702.614287464
 21
989800111.9385707
 31
0.0
  0
LINE
  5
593
330
1E
100
AcDbEntity
  8
0
  6
C6CONTINUOUS
 62
     7
100
AcDbLine
 10
4999664.614287658
 20
989800021.9385712
 30
0.0
 11
4999664.614287658
 21
989800101.9385707
 31
0.0
  0
LINE
  5
594
330
1E
100
AcDbEntity
  8
0
  6
C6CONTINUOUS
 62
     7
100
AcDbLine
 10
4999664.614287658
 20
989800101.9385707
 30
0.0
 11
4999711.614287342
 21
989800101.9385707
 31
0.0
  0
LINE
  5
595
330
1E
100
AcDbEntity
  8
0
  6
C6CONTINUOUS
 62
     7
100
AcDbLine
 10
4999711.614287342
 20
989800101.9385707
 30
0.0
 11
4999711.614287342
 21
989800021.9385712
 31
0.0
  0
LINE
  5
596
330
1E
100
AcDbEntity
  8
0
  6
C6CONTINUOUS
 62
     7
100
AcDbLine
 10
4999711.614287342
 20
989800021.9385712
 30
0.0
 11
4999664.614287658
 21
989800021.9385712
 31
0.0
  0
LINE
  5
597
330
1E
100
AcDbEntity
  8
0
  6
C6CONTINUOUS
 62
     7
100
AcDbLine
 10
4999675.014287555
 20
989800110.9385708
 30
0.0
 11
4999676.114287519
 21
989800103.4385707
 31
0.0
  0
LINE
  5
598
330
1E
100
AcDbEntity
  8
0
  6
C6CONTINUOUS
 62
     7
100
AcDbLine
 10
4999664.614287658
 20
989800104.4385708
 30
0.0
 11
4999664.614287658
 21
989800109.9385707
 31
0.0
  0
LWPOLYLINE
  5
599
330
1E
100
AcDbEntity
  8
0
  6
C6CONTINUOUS
 62
     7
100
AcDbPolyline
 90
       19
 70
     0
 43
0.0
 10
4999664.614287658
 20
989800104.4385713
 10
4999664.61814476
 20
989800104.3514275
 10
4999664.629430473
 20
989800104.2649994
 10
4999664.64843039
 20
989800104.1797137
 10
4999664.674573328
 20
989800104.0965707
 10
4999664.708001826
 20
989800104.0159991
 10
4999664.748287583
 20
989800103.9385707
 10
4999664.795144836
 20
989800103.8649992
 10
4999664.848287658
 20
989800103.7957136
 10
4999664.90714469
 20
989800103.7314282
 10
4999664.971430512
 20
989800103.6725707
 10
4999665.040716143
 20
989800103.619428
 10
4999665.114287688
 20
989800103.5725707
 10
4999665.191716166
 20
989800103.5322852
 10
4999665.27228768
 20
989800103.4988563
 10
4999665.35543054
 20
989800103.4727137
 10
4999665.440716101
 20
989800103.4537136
 10
4999665.527144708
 20
989800103.4424279
 10
4999665.614287549
 20
989800103.4385707
  0
LINE
  5
5AE
330
1E
100
AcDbEntity
  8
0
  6
C6CONTINUOUS
 62
     7
100
AcDbLine
 10
4999665.614287549
 20
989800103.4385707
 30
0.0
 11
4999666.614287612
 21
989800103.4385707
 31
0.0
  0
LINE
  5
5AF
330
1E
100
AcDbEntity
  8
0
  6
C6CONTINUOUS
 62
     7
100
AcDbLine
 10
4999666.614287612
 20
989800103.4385707
 30
0.0
 11
4999666.614287612
 21
989800101.9385707
 31
0.0
  0
LWPOLYLINE
  5
5B0
330
1E
100
AcDbEntity
  8
0
  6
C6CONTINUOUS
 62
     7
100
AcDbPolyline
 90
       73
 70
     0
 43
0.0
 10
4999670.61428752
 20
989800109.2385706
 10
4999670.413859068
 20
989800109.2297137
 10
4999670.214859087
 20
989800109.2037135
 10
4999670.019001801
 20
989800109.1601422
 10
4999669.827716192
 20
989800109.0998565
 10
4999669.642287506
 20
989800109.0231419
 10
4999669.464287601
 20
989800108.9304278
 10
4999669.295144776
 20
989800108.8225706
 10
4999669.135859027
 20
989800108.7004278
 10
4999668.988001872
 20
989800108.5648566
 10
4999668.85243043
 20
989800108.4169994
 10
4999668.730287568
 20
989800108.2577136
 10
4999668.622430412
 20
989800108.0885707
 10
4999668.529858949
 20
989800107.9105702
 10
4999668.453001825
 20
989800107.725142
 10
4999668.392716156
 20
989800107.5338564
 10
4999668.34914482
 20
989800107.3379994
 10
4999668.323144764
 20
989800107.1391423
 10
4999668.314287514
 20
989800106.938571
 10
4999668.323144764
 20
989800106.7381422
 10
4999668.34914482
 20
989800106.5391424
 10
4999668.392716156
 20
989800106.3432847
 10
4999668.453001825
 20
989800106.1519996
 10
4999668.529858949
 20
989800105.9665707
 10
4999668.622430412
 20
989800105.7885707
 10
4999668.730287568
 20
989800105.619428
 10
4999668.85243043
 20
989800105.460142
 10
4999668.988001872
 20
989800105.3122847
 10
4999669.135859027
 20
989800105.1767137
 10
4999669.295144776
 20
989800105.0545707
 10
4999669.464287601
 20
989800104.9467136
 10
4999669.642287506
 20
989800104.8541424
 10
4999669.827716192
 20
989800104.7772851
 10
4999670.019001801
 20
989800104.7169991
 10
4999670.214859087
 20
989800104.6734279
 10
4999670.413859068
 20
989800104.6474279
 10
4999670.61428752
 20
989800104.6385706
 10
4999670.814859022
 20
989800104.6474279
 10
4999671.013716124
 20
989800104.6734279
 10
4999671.209573238
 20
989800104.7169991
 10
4999671.400859017
 20
989800104.7772851
 10
4999671.586287534
 20
989800104.8541424
 10
4999671.764287608
 20
989800104.9467136
 10
4999671.933430431
 20
989800105.0545707
 10
4999672.092716181
 20
989800105.1767137
 10
4999672.240573335
 20
989800105.3122847
 10
4999672.376144779
 20
989800105.460142
 10
4999672.498287639
 20
989800105.619428
 10
4999672.606144627
 20
989800105.7885707
 10
4999672.698858971
 20
989800105.9665707
 10
4999672.775573213
 20
989800106.1519996
 10
4999672.835859055
 20
989800106.3432847
 10
4999672.879430389
 20
989800106.5391424
 10
4999672.905430445
 20
989800106.7381422
 10
4999672.914287526
 20
989800106.938571
 10
4999672.905430445
 20
989800107.1391423
 10
4999672.879430389
 20
989800107.3379994
 10
4999672.835859055
 20
989800107.5338564
 10
4999672.775573213
 20
989800107.725142
 10
4999672.698858971
 20
989800107.9105702
 10
4999672.606144627
 20
989800108.0885707
 10
4999672.498287639
 20
989800108.2577136
 10
4999672.376144779
 20
989800108.4169994
 10
4999672.240573335
 20
989800108.5648566
 10
4999672.092716181
 20
989800108.7004278
 10
4999671.933430431
 20
989800108.8225706
 10
4999671.764287608
 20
989800108.9304278
 10
4999671.586287534
 20
989800109.0231419
 10
4999671.400859017
 20
989800109.0998565
 10
4999671.209573238
 20
989800109.1601422
 10
4999671.013716124
 20
989800109.2037135
 10
4999670.814859022
 20
989800109.2297137
 10
4999670.61428752
 20
989800109.2385706
  0
LINE
  5
5FB
330
1E
100
AcDbEntity
  8
0
  6
C6CONTINUOUS
 62
     7
100
AcDbLine
 10
4999666.614287612
 20
989800111.9385707
 30
0.0
 11
4999673.614287535
 21
989800111.9385707
 31
0.0
  0
LWPOLYLINE
  5
5FC
330
1E
100
AcDbEntity
  8
0
  6
C6CONTINUOUS
 62
     7
100
AcDbPolyline
 90
       16
 70
     0
 43
0.0
 10
4999675.036858981
 20
989800110.9145706
 10
4999675.023859039
 20
989800110.9515707
 10
4999674.973858917
 20
989800111.0724278
 10
4999674.913287485
 20
989800111.1885706
 10
4999674.843001858
 20
989800111.2989991
 10
4999674.763430339
 20
989800111.4027136
 10
4999674.67500191
 20
989800111.4992851
 10
4999674.578430466
 20
989800111.5877132
 10
4999674.47471617
 20
989800111.6672848
 10
4999674.364287496
 20
989800111.7375708
 10
4999674.248144781
 20
989800111.7981422
 10
4999674.127287511
 20
989800111.848142
 10
4999674.002430426
 20
989800111.8874276
 10
4999673.874858943
 20
989800111.9157136
 10
4999673.745001884
 20
989800111.9328563
 10
4999673.614287535
 20
989800111.9385707
  0
LWPOLYLINE
  5
60E
330
1E
100
AcDbEntity
  8
0
  6
C6CONTINUOUS
 62
     7
100
AcDbPolyline
 90
       19
 70
     0
 43
0.0
 10
4999666.614287611
 20
989800111.9385707
 10
4999666.440001929
 20
989800111.9309991
 10
4999666.267001832
 20
989800111.9081419
 10
4999666.096716132
 20
989800111.8704279
 10
4999665.930287532
 20
989800111.8179994
 10
4999665.769144673
 20
989800111.7511423
 10
4999665.614287549
 20
989800111.6707137
 10
4999665.4671448
 20
989800111.5768565
 10
4999665.328716248
 20
989800111.4707136
 10
4999665.200144773
 20
989800111.3527136
 10
4999665.082144779
 20
989800111.2241423
 10
4999664.976001847
 20
989800111.0857135
 10
4999664.882144798
 20
989800110.9385708
 10
4999664.801716163
 20
989800110.7837137
 10
4999664.734858996
 20
989800110.6225708
 10
4999664.682430412
 20
989800110.4561419
 10
4999664.644716169
 20
989800110.2858565
 10
4999664.621858982
 20
989800110.1128564
 10
4999664.614287658
 20
989800109.9385707
  0
LINE
  5
623
330
1E
100
AcDbEntity
  8
0
  6
C6CONTINUOUS
 62
     7
100
AcDbLine
 10
4999670.61428752
 20
989800097.9385708
 30
0.0
 11
4999670.61428752
 21
989800101.9385707
 31
0.0
  0
LINE
  5
624
330
1E
100
AcDbEntity
  8
0
  6
C6CONTINUOUS
 62
     7
100
AcDbLine
 10
4999683.614287475
 20
989800097.9385708
 30
0.0
 11
4999683.614287475
 21
989800101.9385707
 31
0.0
  0
LINE
  5
625
330
1E
100
AcDbEntity
  8
0
  6
C6CONTINUOUS
 62
     7
100
AcDbLine
 10
4999705.614287308
 20
989800097.9385708
 30
0.0
 11
4999705.614287308
 21
989800101.9385707
 31
0.0
  0
LINE
  5
626
330
1E
100
AcDbEntity
  8
0
  6
C6CONTINUOUS
 62
     7
100
AcDbLine
 10
4999692.614287523
 20
989800097.9385708
 30
0.0
 11
4999692.614287523
 21
989800101.9385707
 31
0.0
  0
LINE
  5
627
330
1E
100
AcDbEntity
  8
0
  6
C6CONTINUOUS
 62
     7
100
AcDbLine
 10
4999685.61428743
 20
989800101.9385707
 30
0.0
 11
4999685.61428743
 21
989800103.4385707
 31
0.0
  0
LINE
  5
628
330
1E
100
AcDbEntity
  8
0
  6
C6CONTINUOUS
 62
     7
100
AcDbLine
 10
4999690.6142874
 20
989800103.4385707
 30
0.0
 11
4999690.6142874
 21
989800101.9385707
 31
0.0
  0
LINE
  5
629
330
1E
100
AcDbEntity
  8
0
  6
C6CONTINUOUS
 62
     7
100
AcDbLine
 10
4999690.6142874
 20
989800103.4385707
 30
0.0
 11
4999700.114287477
 21
989800103.4385707
 31
0.0
  0
LINE
  5
62A
330
1E
100
AcDbEntity
  8
0
  6
C6CONTINUOUS
 62
     7
100
AcDbLine
 10
4999676.114287519
 20
989800103.4385707
 30
0.0
 11
4999685.61428743
 21
989800103.4385707
 31
0.0
  0
LINE
  5
62B
330
1E
100
AcDbEntity
  8
0
  6
C6CONTINUOUS
 62
     5
100
AcDbLine
 10
4999670.61428752
 20
989800020.1394284
 30
0.0
 11
4999670.61428752
 21
989800013.7385713
 31
0.0
  0
LINE
  5
62C
330
1E
100
AcDbEntity
  8
0
  6
C6CONTINUOUS
 62
     7
100
AcDbLine
 10
4999633.114287743
 20
989800023.0352856
 30
0.0
 11
4999633.114287743
 21
989800100.842428
 31
0.0
  0
LINE
  5
62D
330
1E
100
AcDbEntity
  8
0
  6
C6CONTINUOUS
 62
     7
100
AcDbLine
 10
4999703.314287303
 20
989800017.4385712
 30
0.0
 11
4999703.314287303
 21
989800016.4385713
 31
0.0
  0
LINE
  5
62E
330
1E
100
AcDbEntity
  8
0
  6
C6CONTINUOUS
 62
     7
100
AcDbLine
 10
4999707.914287316
 20
989800017.4385712
 30
0.0
 11
4999707.914287316
 21
989800016.4385713
 31
0.0
  0
LWPOLYLINE
  5
62F
330
1E
100
AcDbEntity
  8
0
  6
C6CONTINUOUS
 62
     7
100
AcDbPolyline
 90
       37
 70
     0
 43
0.0
 10
4999707.914287315
 20
989800017.4385712
 10
4999707.905430237
 20
989800017.6391427
 10
4999707.879430181
 20
989800017.8379998
 10
4999707.835858843
 20
989800018.033857
 10
4999707.775573004
 20
989800018.2251427
 10
4999707.69885876
 20
989800018.4105713
 10
4999707.606144418
 20
989800018.5885713
 10
4999707.498287429
 20
989800018.7577142
 10
4999707.376144568
 20
989800018.917
 10
4999707.240573124
 20
989800019.064857
 10
4999707.092715971
 20
989800019.2004284
 10
4999706.933430222
 20
989800019.3225716
 10
4999706.764287397
 20
989800019.4304287
 10
4999706.586287323
 20
989800019.5231428
 10
4999706.400858809
 20
989800019.5998571
 10
4999706.209573028
 20
989800019.6601428
 10
4999706.013715914
 20
989800019.703714
 10
4999705.814858811
 20
989800019.729714
 10
4999705.614287308
 20
989800019.7385712
 10
4999705.413858858
 20
989800019.729714
 10
4999705.214858876
 20
989800019.703714
 10
4999705.01900159
 20
989800019.6601428
 10
4999704.827715982
 20
989800019.5998571
 10
4999704.642287295
 20
989800019.5231428
 10
4999704.464287391
 20
989800019.4304287
 10
4999704.295144566
 20
989800019.3225716
 10
4999704.135858818
 20
989800019.2004284
 10
4999703.988001665
 20
989800019.064857
 10
4999703.852430219
 20
989800018.917
 10
4999703.73028736
 20
989800018.7577142
 10
4999703.622430201
 20
989800018.5885713
 10
4999703.52985874
 20
989800018.4105713
 10
4999703.453001616
 20
989800018.2251427
 10
4999703.392715946
 20
989800018.033857
 10
4999703.349144609
 20
989800017.8379998
 10
4999703.323144553
 20
989800017.6391427
 10
4999703.314287303
 20
989800017.4385712
  0
LWPOLYLINE
  5
656
330
1E
100
AcDbEntity
  8
0
  6
C6CONTINUOUS
 62
     7
100
AcDbPolyline
 90
       37
 70
     0
 43
0.0
 10
4999703.314287303
 20
989800016.4385717
 10
4999703.323144553
 20
989800016.2381427
 10
4999703.349144609
 20
989800016.0391427
 10
4999703.392715946
 20
989800015.8432855
 10
4999703.453001616
 20
989800015.652
 10
4999703.52985874
 20
989800015.4665712
 10
4999703.622430201
 20
989800015.2885712
 10
4999703.73028736
 20
989800015.1194283
 10
4999703.852430219
 20
989800014.9601426
 10
4999703.988001665
 20
989800014.8122855
 10
4999704.135858818
 20
989800014.6767143
 10
4999704.295144566
 20
989800014.5545712
 10
4999704.464287391
 20
989800014.446714
 10
4999704.642287295
 20
989800014.3541427
 10
4999704.827715982
 20
989800014.2772856
 10
4999705.01900159
 20
989800014.2169998
 10
4999705.214858876
 20
989800014.1734286
 10
4999705.413858858
 20
989800014.1474287
 10
4999705.614287308
 20
989800014.1385713
 10
4999705.814858811
 20
989800014.1474287
 10
4999706.013715914
 20
989800014.1734286
 10
4999706.209573028
 20
989800014.2169998
 10
4999706.400858809
 20
989800014.2772856
 10
4999706.586287323
 20
989800014.3541427
 10
4999706.764287397
 20
989800014.446714
 10
4999706.933430222
 20
989800014.5545712
 10
4999707.092715971
 20
989800014.6767143
 10
4999707.240573124
 20
989800014.8122855
 10
4999707.376144568
 20
989800014.9601426
 10
4999707.498287429
 20
989800015.1194283
 10
4999707.606144418
 20
989800015.2885712
 10
4999707.69885876
 20
989800015.4665712
 10
4999707.775573004
 20
989800015.652
 10
4999707.835858843
 20
989800015.8432855
 10
4999707.879430181
 20
989800016.0391427
 10
4999707.905430237
 20
989800016.2381427
 10
4999707.914287315
 20
989800016.4385717
  0
LINE
  5
67D
330
1E
100
AcDbEntity
  8
0
  6
C6CONTINUOUS
 62
     5
100
AcDbLine
 10
4999703.114287323
 20
989800016.9385714
 30
0.0
 11
4999708.114287293
 21
989800016.9385714
 31
0.0
  0
LINE
  5
67E
330
1E
100
AcDbEntity
  8
0
  6
C6CONTINUOUS
 62
     5
100
AcDbLine
 10
4999705.614287308
 20
989800020.1394284
 30
0.0
 11
4999705.614287308
 21
989800013.7385713
 31
0.0
  0
LINE
  5
67F
330
1E
100
AcDbEntity
  8
0
  6
C6CONTINUOUS
 62
     7
100
AcDbLine
 10
4999720.61428722
 20
989800023.0352856
 30
0.0
 11
4999720.61428722
 21
989800100.842428
 31
0.0
  0
LINE
  5
680
330
1E
100
AcDbEntity
  8
0
  6
C6CONTINUOUS
 62
     7
100
AcDbLine
 10
4999722.614287342
 20
989800023.0352856
 30
0.0
 11
4999722.614287342
 21
989800100.842428
 31
0.0
  0
LINE
  5
681
330
1E
100
AcDbEntity
  8
0
  6
C6CONTINUOUS
 62
     5
100
AcDbLine
 10
4999677.114287583
 20
989800087.4349994
 30
0.0
 11
4999677.114287583
 21
989800132.7857343
 31
0.0
  0
LINE
  5
682
330
1E
100
AcDbEntity
  8
0
  6
C6CONTINUOUS
 62
     5
100
AcDbLine
 10
4999670.61428752
 20
989800147.7774473
 30
0.0
 11
4999670.61428752
 21
989800103.4385707
 31
0.0
  0
LINE
  5
683
330
1E
100
AcDbEntity
  8
0
  6
C6CONTINUOUS
 62
     5
100
AcDbLine
 10
4999670.61428752
 20
989800145.3135707
 30
0.0
 11
4999705.614287308
 21
989800145.3135707
 31
0.0
  0
LINE
  5
684
330
1E
100
AcDbEntity
  8
0
  6
C6CONTINUOUS
 62
     5
100
AcDbLine
 10
4999673.512144759
 20
989800146.090142
 30
0.0
 11
4999670.61428752
 21
989800145.3135707
 31
0.0
  0
LINE
  5
685
330
1E
100
AcDbEntity
  8
0
  6
C6CONTINUOUS
 62
     5
100
AcDbLine
 10
4999670.61428752
 20
989800145.3135707
 30
0.0
 11
4999673.512144759
 21
989800144.537142
 31
0.0
  0
LINE
  5
686
330
1E
100
AcDbEntity
  8
0
  6
C6CONTINUOUS
 62
     5
100
AcDbLine
 10
4999702.71643024
 20
989800144.537142
 30
0.0
 11
4999705.614287308
 21
989800145.3135707
 31
0.0
  0
LINE
  5
687
330
1E
100
AcDbEntity
  8
0
  6
C6CONTINUOUS
 62
     5
100
AcDbLine
 10
4999705.614287308
 20
989800145.3135707
 30
0.0
 11
4999702.71643024
 21
989800146.090142
 31
0.0
  0
TEXT
  5
688
102
{ACAD_REACTORS
330
1682
102
}
330
1E
100
AcDbEntity
  8
0
  6
C6CONTINUOUS
 62
     5
100
AcDbText
 10
4999685.758619916
 20
989800146.1309668
 30
0.0
 40
2.999999981999998
  1
３
  7
BIGFONT
100
AcDbText
  0
TEXT
  5
689
102
{ACAD_REACTORS
330
1682
102
}
330
1E
100
AcDbEntity
  8
0
  6
C6CONTINUOUS
 62
     5
100
AcDbText
 10
4999688.758762813
 20
989800146.1309668
 30
0.0
 40
2.999999981999998
  1
５
  7
BIGFONT
100
AcDbText
  0
LINE
  5
68A
330
1E
100
AcDbEntity
  8
0
  6
C6CONTINUOUS
 62
     5
100
AcDbLine
 10
4999677.114287583
 20
989800130.3135707
 30
0.0
 11
4999699.114287416
 21
989800130.3135707
 31
0.0
  0
LINE
  5
68B
330
1E
100
AcDbEntity
  8
0
  6
C6CONTINUOUS
 62
     5
100
AcDbLine
 10
4999680.012144652
 20
989800131.090142
 30
0.0
 11
4999677.114287583
 21
989800130.3135707
 31
0.0
  0
LINE
  5
68C
330
1E
100
AcDbEntity
  8
0
  6
C6CONTINUOUS
 62
     5
100
AcDbLine
 10
4999677.114287583
 20
989800130.3135707
 30
0.0
 11
4999680.012144652
 21
989800129.537142
 31
0.0
  0
LINE
  5
68D
330
1E
100
AcDbEntity
  8
0
  6
C6CONTINUOUS
 62
     5
100
AcDbLine
 10
4999696.216430346
 20
989800129.537142
 30
0.0
 11
4999699.114287416
 21
989800130.3135707
 31
0.0
  0
LINE
  5
68E
330
1E
100
AcDbEntity
  8
0
  6
C6CONTINUOUS
 62
     5
100
AcDbLine
 10
4999699.114287416
 20
989800130.3135707
 30
0.0
 11
4999696.216430346
 21
989800131.090142
 31
0.0
  0
TEXT
  5
68F
102
{ACAD_REACTORS
330
1681
102
}
330
1E
100
AcDbEntity
  8
0
  6
C6CONTINUOUS
 62
     5
100
AcDbText
 10
4999685.758619916
 20
989800131.1309668
 30
0.0
 40
2.999999981999998
  1
２
  7
BIGFONT
100
AcDbText
  0
TEXT
  5
690
102
{ACAD_REACTORS
330
1681
102
}
330
1E
100
AcDbEntity
  8
0
  6
C6CONTINUOUS
 62
     5
100
AcDbText
 10
4999688.758762813
 20
989800131.1309668
 30
0.0
 40
2.999999981999998
  1
２
  7
BIGFONT
100
AcDbText
  0
LINE
  5
691
330
1E
100
AcDbEntity
  8
0
  6
C6CONTINUOUS
 62
     5
100
AcDbLine
 10
4999664.614287658
 20
989800160.3135702
 30
0.0
 11
4999711.614287342
 21
989800160.3135702
 31
0.0
  0
LINE
  5
692
330
1E
100
AcDbEntity
  8
0
  6
C6CONTINUOUS
 62
     5
100
AcDbLine
 10
4999667.512144728
 20
989800161.090142
 30
0.0
 11
4999664.614287658
 21
989800160.3135702
 31
0.0
  0
LINE
  5
693
330
1E
100
AcDbEntity
  8
0
  6
C6CONTINUOUS
 62
     5
100
AcDbLine
 10
4999664.614287658
 20
989800160.3135702
 30
0.0
 11
4999667.512144728
 21
989800159.537142
 31
0.0
  0
LINE
  5
694
330
1E
100
AcDbEntity
  8
0
  6
C6CONTINUOUS
 62
     5
100
AcDbLine
 10
4999708.716430272
 20
989800159.537142
 30
0.0
 11
4999711.614287342
 21
989800160.3135702
 31
0.0
  0
LINE
  5
695
330
1E
100
AcDbEntity
  8
0
  6
C6CONTINUOUS
 62
     5
100
AcDbLine
 10
4999711.614287342
 20
989800160.3135702
 30
0.0
 11
4999708.716430272
 21
989800161.090142
 31
0.0
  0
TEXT
  5
696
102
{ACAD_REACTORS
330
1683
102
}
330
1E
100
AcDbEntity
  8
0
  6
C6CONTINUOUS
 62
     5
100
AcDbText
 10
4999685.758619916
 20
989800161.1309668
 30
0.0
 40
2.999999981999998
  1
４
  7
BIGFONT
100
AcDbText
  0
TEXT
  5
697
102
{ACAD_REACTORS
330
1683
102
}
330
1E
100
AcDbEntity
  8
0
  6
C6CONTINUOUS
 62
     5
100
AcDbText
 10
4999688.758762813
 20
989800161.1309668
 30
0.0
 40
2.999999981999998
  1
７
  7
BIGFONT
100
AcDbText
  0
LINE
  5
698
330
1E
100
AcDbEntity
  8
0
  6
C6CONTINUOUS
 62
     5
100
AcDbLine
 10
4999699.114287416
 20
989800087.4349994
 30
0.0
 11
4999699.114287416
 21
989800132.8617381
 31
0.0
  0
LINE
  5
699
330
1E
100
AcDbEntity
  8
0
  6
C6CONTINUOUS
 62
     5
100
AcDbLine
 10
4999705.614287308
 20
989800147.83445
 30
0.0
 11
4999705.614287308
 21
989800103.9328564
 31
0.0
  0
LINE
  5
69A
330
1E
100
AcDbEntity
  8
0
  6
C6CONTINUOUS
 62
     5
100
AcDbLine
 10
4999711.614287342
 20
989800112.3094275
 30
0.0
 11
4999711.614287342
 21
989800162.4904804
 31
0.0
  0
LINE
  5
69B
330
1E
100
AcDbEntity
  8
0
  6
C6CONTINUOUS
 62
     5
100
AcDbLine
 10
4999664.614287658
 20
989800112.3041419
 30
0.0
 11
4999664.614287658
 21
989800162.7501594
 31
0.0
  0
LINE
  5
69C
330
1E
100
AcDbEntity
  8
0
  6
C6CONTINUOUS
 62
     5
100
AcDbLine
 10
4999633.01428784
 20
989800102.3135707
 30
0.0
 11
4999633.01428784
 21
989800177.6468682
 31
0.0
  0
LINE
  5
69D
330
1E
100
AcDbEntity
  8
0
  6
C6CONTINUOUS
 62
     5
100
AcDbLine
 10
4999633.01428784
 20
989800175.3135702
 30
0.0
 11
4999743.01428718
 21
989800175.3135702
 31
0.0
  0
LINE
  5
69E
330
1E
100
AcDbEntity
  8
0
  6
C6CONTINUOUS
 62
     5
100
AcDbLine
 10
4999635.912144911
 20
989800176.090142
 30
0.0
 11
4999633.01428784
 21
989800175.3135702
 31
0.0
  0
LINE
  5
69F
330
1E
100
AcDbEntity
  8
0
  6
C6CONTINUOUS
 62
     5
100
AcDbLine
 10
4999633.01428784
 20
989800175.3135702
 30
0.0
 11
4999635.912144911
 21
989800174.537142
 31
0.0
  0
LINE
  5
6A0
330
1E
100
AcDbEntity
  8
0
  6
C6CONTINUOUS
 62
     5
100
AcDbLine
 10
4999740.116429941
 20
989800174.537142
 30
0.0
 11
4999743.01428718
 21
989800175.3135702
 31
0.0
  0
LINE
  5
6A1
330
1E
100
AcDbEntity
  8
0
  6
C6CONTINUOUS
 62
     5
100
AcDbLine
 10
4999743.01428718
 20
989800175.3135702
 30
0.0
 11
4999740.116429941
 21
989800176.090142
 31
0.0
  0
TEXT
  5
6A2
102
{ACAD_REACTORS
330
1684
102
}
330
1E
100
AcDbEntity
  8
0
  6
C6CONTINUOUS
 62
     5
100
AcDbText
 10
4999683.859058227
 20
989800176.1309668
 30
0.0
 40
2.999999981999998
  1
１
  7
BIGFONT
100
AcDbText
  0
TEXT
  5
6A3
102
{ACAD_REACTORS
330
1684
102
}
330
1E
100
AcDbEntity
  8
0
  6
C6CONTINUOUS
 62
     5
100
AcDbText
 10
4999686.859201123
 20
989800176.1309668
 30
0.0
 40
2.999999981999998
  1
１
  7
BIGFONT
100
AcDbText
  0
TEXT
  5
6A4
102
{ACAD_REACTORS
330
1684
102
}
330
1E
100
AcDbEntity
  8
0
  6
C6CONTINUOUS
 62
     5
100
AcDbText
 10
4999689.85934385
 20
989800176.1309668
 30
0.0
 40
2.999999981999998
  1
０
  7
BIGFONT
100
AcDbText
  0
LINE
  5
6AE
330
1E
100
AcDbEntity
  8
0
  6
C6CONTINUOUS
 62
     5
100
AcDbLine
 10
4999596.879472986
 20
989800111.9385707
 30
0.0
 11
4999663.114287564
 21
989800111.9385707
 31
0.0
  0
LINE
  5
6AF
330
1E
100
AcDbEntity
  8
0
  6
C6CONTINUOUS
 62
     5
100
AcDbLine
 10
4999595.683979612
 20
989800011.9349999
 30
0.0
 11
4999664.15743049
 21
989800011.9349999
 31
0.0
  0
LINE
  5
6B0
330
1E
100
AcDbEntity
  8
0
  6
C6CONTINUOUS
 62
     5
100
AcDbLine
 10
4999614.343240174
 20
989800016.935
 30
0.0
 11
4999673.12414475
 21
989800016.935
 31
0.0
  0
LINE
  5
6B1
330
1E
100
AcDbEntity
  8
0
  6
C6CONTINUOUS
 62
     5
100
AcDbLine
 10
4999770.532058337
 20
989800030.4385712
 30
0.0
 11
4999676.619573291
 21
989800030.4385712
 31
0.0
  0
LINE
  5
6B2
330
1E
100
AcDbEntity
  8
0
  6
C6CONTINUOUS
 62
     5
100
AcDbLine
 10
4999671.344144687
 20
989800091.4385708
 30
0.0
 11
4999769.996477308
 21
989800091.4385708
 31
0.0
  0
LINE
  5
6B3
330
1E
100
AcDbEntity
  8
0
  6
C6CONTINUOUS
 62
     5
100
AcDbLine
 10
4999614.209344916
 20
989800106.9385706
 30
0.0
 11
4999673.514287632
 21
989800106.9385706
 31
0.0
  0
LINE
  5
6B4
330
1E
100
AcDbEntity
  8
0
  6
C6CONTINUOUS
 62
     5
100
AcDbLine
 10
4999616.478675223
 20
989800106.9349993
 30
0.0
 11
4999616.478675223
 21
989800016.935
 31
0.0
  0
LINE
  5
6B5
330
1E
100
AcDbEntity
  8
0
  6
C6CONTINUOUS
 62
     5
100
AcDbLine
 10
4999617.255246595
 20
989800104.0371422
 30
0.0
 11
4999616.478675223
 21
989800106.9349993
 31
0.0
  0
LINE
  5
6B6
330
1E
100
AcDbEntity
  8
0
  6
C6CONTINUOUS
 62
     5
100
AcDbLine
 10
4999616.478675223
 20
989800106.9349993
 30
0.0
 11
4999615.702246732
 21
989800104.0371422
 31
0.0
  0
LINE
  5
6B7
330
1E
100
AcDbEntity
  8
0
  6
C6CONTINUOUS
 62
     5
100
AcDbLine
 10
4999615.702246732
 20
989800019.8327141
 30
0.0
 11
4999616.478675223
 21
989800016.935
 31
0.0
  0
LINE
  5
6B8
330
1E
100
AcDbEntity
  8
0
  6
C6CONTINUOUS
 62
     5
100
AcDbLine
 10
4999616.478675223
 20
989800016.935
 30
0.0
 11
4999617.255246595
 21
989800019.8327141
 31
0.0
  0
TEXT
  5
6B9
330
1E
100
AcDbEntity
  8
0
  6
C6CONTINUOUS
 62
     5
100
AcDbText
 10
4999615.978675108
 20
989800058.9348569
 30
0.0
 40
2.999999981999998
  1
９
 50
90.0
  7
BIGFONT
100
AcDbText
  0
TEXT
  5
6BA
330
1E
100
AcDbEntity
  8
0
  6
C6CONTINUOUS
 62
     5
100
AcDbText
 10
4999615.978675108
 20
989800061.9349996
 30
0.0
 40
2.999999981999998
  1
０
 50
90.0
  7
BIGFONT
100
AcDbText
  0
LINE
  5
6BB
330
1E
100
AcDbEntity
  8
0
  6
C6CONTINUOUS
 62
     5
100
AcDbLine
 10
4999767.968918791
 20
989800030.4385083
 30
0.0
 11
4999767.968918791
 21
989800061.9385079
 31
0.0
  0
LINE
  5
6BC
330
1E
100
AcDbEntity
  8
0
  6
C6CONTINUOUS
 62
     5
100
AcDbLine
 10
4999767.1924903
 20
989800033.3362226
 30
0.0
 11
4999767.968918791
 21
989800030.4385083
 31
0.0
  0
LINE
  5
6BD
330
1E
100
AcDbEntity
  8
0
  6
C6CONTINUOUS
 62
     5
100
AcDbLine
 10
4999767.968918791
 20
989800030.4385083
 30
0.0
 11
4999768.745490162
 21
989800033.3362226
 31
0.0
  0
LINE
  5
6BE
330
1E
100
AcDbEntity
  8
0
  6
C6CONTINUOUS
 62
     5
100
AcDbLine
 10
4999768.745490162
 20
989800059.0406507
 30
0.0
 11
4999767.968918791
 21
989800061.9385079
 31
0.0
  0
LINE
  5
6BF
330
1E
100
AcDbEntity
  8
0
  6
C6CONTINUOUS
 62
     5
100
AcDbLine
 10
4999767.968918791
 20
989800061.9385079
 30
0.0
 11
4999767.1924903
 21
989800059.0406507
 31
0.0
  0
TEXT
  5
6C0
330
1E
100
AcDbEntity
  8
0
  6
C6CONTINUOUS
 62
     5
100
AcDbText
 10
4999767.468918673
 20
989800040.1882226
 30
0.0
 40
2.999999981999998
  1
３
 50
90.0
  7
BIGFONT
100
AcDbText
  0
TEXT
  5
6C1
330
1E
100
AcDbEntity
  8
0
  6
C6CONTINUOUS
 62
     5
100
AcDbText
 10
4999767.468918673
 20
989800043.1883655
 30
0.0
 40
2.999999981999998
  1
１
 50
90.0
  7
BIGFONT
100
AcDbText
  0
TEXT
  5
6C2
330
1E
100
AcDbEntity
  8
0
  6
C6CONTINUOUS
 62
     5
100
AcDbText
 10
4999767.468918673
 20
989800046.1885084
 30
0.0
 40
2.999999981999998
  1
．
 50
90.0
  7
BIGFONT
100
AcDbText
  0
TEXT
  5
6C3
330
1E
100
AcDbEntity
  8
0
  6
C6CONTINUOUS
 62
     5
100
AcDbText
 10
4999767.468918673
 20
989800049.1886511
 30
0.0
 40
2.999999981999998
  1
５
 50
90.0
  7
BIGFONT
100
AcDbText
  0
LINE
  5
6C4
330
1E
100
AcDbEntity
  8
0
  6
C6CONTINUOUS
 62
     5
100
AcDbLine
 10
4999598.008018728
 20
989800111.9349991
 30
0.0
 11
4999598.008018728
 21
989800011.9349999
 31
0.0
  0
LINE
  5
6C5
330
1E
100
AcDbEntity
  8
0
  6
C6CONTINUOUS
 62
     5
100
AcDbLine
 10
4999598.784590099
 20
989800109.0371424
 30
0.0
 11
4999598.008018728
 21
989800111.9349991
 31
0.0
  0
LINE
  5
6C6
330
1E
100
AcDbEntity
  8
0
  6
C6CONTINUOUS
 62
     5
100
AcDbLine
 10
4999598.008018728
 20
989800111.9349991
 30
0.0
 11
4999597.231590238
 21
989800109.0371424
 31
0.0
  0
LINE
  5
6C7
330
1E
100
AcDbEntity
  8
0
  6
C6CONTINUOUS
 62
     5
100
AcDbLine
 10
4999597.231590238
 20
989800014.832714
 30
0.0
 11
4999598.008018728
 21
989800011.9349999
 31
0.0
  0
LINE
  5
6C8
330
1E
100
AcDbEntity
  8
0
  6
C6CONTINUOUS
 62
     5
100
AcDbLine
 10
4999598.008018728
 20
989800011.9349999
 30
0.0
 11
4999598.784590099
 21
989800014.832714
 31
0.0
  0
TEXT
  5
6C9
330
1E
100
AcDbEntity
  8
0
  6
C6CONTINUOUS
 62
     5
100
AcDbText
 10
4999597.508018614
 20
989800057.4348568
 30
0.0
 40
2.999999981999998
  1
１
 50
90.0
  7
BIGFONT
100
AcDbText
  0
TEXT
  5
6CA
330
1E
100
AcDbEntity
  8
0
  6
C6CONTINUOUS
 62
     5
100
AcDbText
 10
4999597.508018614
 20
989800060.4349995
 30
0.0
 40
2.999999981999998
  1
０
 50
90.0
  7
BIGFONT
100
AcDbText
  0
TEXT
  5
6CB
330
1E
100
AcDbEntity
  8
0
  6
C6CONTINUOUS
 62
     5
100
AcDbText
 10
4999597.508018614
 20
989800063.4351426
 30
0.0
 40
2.999999981999998
  1
０
 50
90.0
  7
BIGFONT
100
AcDbText
  0
LINE
  5
6CC
330
1E
100
AcDbEntity
  8
0
  6
C6CONTINUOUS
 62
     5
100
AcDbLine
 10
4999767.968918791
 20
989800061.9385079
 30
0.0
 11
4999767.968918791
 21
989800091.4385081
 31
0.0
  0
LINE
  5
6CD
330
1E
100
AcDbEntity
  8
0
  6
C6CONTINUOUS
 62
     5
100
AcDbLine
 10
4999767.1924903
 20
989800064.8362224
 30
0.0
 11
4999767.968918791
 21
989800061.9385079
 31
0.0
  0
LINE
  5
6CE
330
1E
100
AcDbEntity
  8
0
  6
C6CONTINUOUS
 62
     5
100
AcDbLine
 10
4999767.968918791
 20
989800061.9385079
 30
0.0
 11
4999768.745490162
 21
989800064.8362224
 31
0.0
  0
LINE
  5
6CF
330
1E
100
AcDbEntity
  8
0
  6
C6CONTINUOUS
 62
     5
100
AcDbLine
 10
4999768.745490162
 20
989800088.540651
 30
0.0
 11
4999767.968918791
 21
989800091.4385081
 31
0.0
  0
LINE
  5
6D0
330
1E
100
AcDbEntity
  8
0
  6
C6CONTINUOUS
 62
     5
100
AcDbLine
 10
4999767.968918791
 20
989800091.4385081
 30
0.0
 11
4999767.1924903
 21
989800088.540651
 31
0.0
  0
TEXT
  5
6D1
330
1E
100
AcDbEntity
  8
0
  6
C6CONTINUOUS
 62
     5
100
AcDbText
 10
4999767.468918673
 20
989800070.6882223
 30
0.0
 40
2.999999981999998
  1
２
 50
90.0
  7
BIGFONT
100
AcDbText
  0
TEXT
  5
6D2
330
1E
100
AcDbEntity
  8
0
  6
C6CONTINUOUS
 62
     5
100
AcDbText
 10
4999767.468918673
 20
989800073.6883654
 30
0.0
 40
2.999999981999998
  1
９
 50
90.0
  7
BIGFONT
100
AcDbText
  0
TEXT
  5
6D3
330
1E
100
AcDbEntity
  8
0
  6
C6CONTINUOUS
 62
     5
100
AcDbText
 10
4999767.468918673
 20
989800076.6885081
 30
0.0
 40
2.999999981999998
  1
．
 50
90.0
  7
BIGFONT
100
AcDbText
  0
TEXT
  5
6D4
330
1E
100
AcDbEntity
  8
0
  6
C6CONTINUOUS
 62
     5
100
AcDbText
 10
4999767.468918673
 20
989800079.688651
 30
0.0
 40
2.999999981999998
  1
５
 50
90.0
  7
BIGFONT
100
AcDbText
  0
LINE
  5
6D5
330
1E
100
AcDbEntity
  8
0
  6
CENTERX2
 62
     1
100
AcDbLine
 10
4999688.114287414
 20
989800106.0349994
 30
0.0
 11
4999688.114287414
 21
989800018.0349999
 31
0.0
  0
LINE
  5
6D6
330
1E
100
AcDbEntity
  8
0
  6
CENTERX2
 62
     1
100
AcDbLine
 10
4999627.114287883
 20
989800061.9349996
 30
0.0
 11
4999770.493802551
 21
989800061.938571
 31
0.0
  0
LWPOLYLINE
  5
6E1
330
1E
100
AcDbEntity
  8
0
  6
C6CONTINUOUS
 62
     7
100
AcDbPolyline
 90
       73
 70
     0
 43
0.0
 10
4999705.614287308
 20
989800109.2385706
 10
4999705.413858858
 20
989800109.2297137
 10
4999705.214858876
 20
989800109.2037135
 10
4999705.01900159
 20
989800109.1601422
 10
4999704.827715982
 20
989800109.0998565
 10
4999704.642287295
 20
989800109.0231419
 10
4999704.464287391
 20
989800108.9304278
 10
4999704.295144566
 20
989800108.8225706
 10
4999704.135858818
 20
989800108.7004278
 10
4999703.988001665
 20
989800108.5648566
 10
4999703.852430219
 20
989800108.4169994
 10
4999703.73028736
 20
989800108.2577136
 10
4999703.622430201
 20
989800108.0885707
 10
4999703.52985874
 20
989800107.9105702
 10
4999703.453001616
 20
989800107.725142
 10
4999703.392715946
 20
989800107.5338564
 10
4999703.349144609
 20
989800107.3379994
 10
4999703.323144553
 20
989800107.1391423
 10
4999703.314287303
 20
989800106.938571
 10
4999703.323144553
 20
989800106.7381422
 10
4999703.349144609
 20
989800106.5391424
 10
4999703.392715946
 20
989800106.3432847
 10
4999703.453001616
 20
989800106.1519996
 10
4999703.52985874
 20
989800105.9665707
 10
4999703.622430201
 20
989800105.7885707
 10
4999703.73028736
 20
989800105.619428
 10
4999703.852430219
 20
989800105.460142
 10
4999703.988001665
 20
989800105.3122847
 10
4999704.135858818
 20
989800105.1767137
 10
4999704.295144566
 20
989800105.0545707
 10
4999704.464287391
 20
989800104.9467136
 10
4999704.642287295
 20
989800104.8541424
 10
4999704.827715982
 20
989800104.7772851
 10
4999705.01900159
 20
989800104.7169991
 10
4999705.214858876
 20
989800104.6734279
 10
4999705.413858858
 20
989800104.6474279
 10
4999705.614287308
 20
989800104.6385706
 10
4999705.814858811
 20
989800104.6474279
 10
4999706.013715914
 20
989800104.6734279
 10
4999706.209573028
 20
989800104.7169991
 10
4999706.400858809
 20
989800104.7772851
 10
4999706.586287323
 20
989800104.8541424
 10
4999706.764287397
 20
989800104.9467136
 10
4999706.933430222
 20
989800105.0545707
 10
4999707.092715971
 20
989800105.1767137
 10
4999707.240573124
 20
989800105.3122847
 10
4999707.376144568
 20
989800105.460142
 10
4999707.498287429
 20
989800105.619428
 10
4999707.606144418
 20
989800105.7885707
 10
4999707.69885876
 20
989800105.9665707
 10
4999707.775573004
 20
989800106.1519996
 10
4999707.835858843
 20
989800106.3432847
 10
4999707.879430181
 20
989800106.5391424
 10
4999707.905430237
 20
989800106.7381422
 10
4999707.914287315
 20
989800106.938571
 10
4999707.905430237
 20
989800107.1391423
 10
4999707.879430181
 20
989800107.3379994
 10
4999707.835858843
 20
989800107.5338564
 10
4999707.775573004
 20
989800107.725142
 10
4999707.69885876
 20
989800107.9105702
 10
4999707.606144418
 20
989800108.0885707
 10
4999707.498287429
 20
989800108.2577136
 10
4999707.376144568
 20
989800108.4169994
 10
4999707.240573124
 20
989800108.5648566
 10
4999707.092715971
 20
989800108.7004278
 10
4999706.933430222
 20
989800108.8225706
 10
4999706.764287397
 20
989800108.9304278
 10
4999706.586287323
 20
989800109.0231419
 10
4999706.400858809
 20
989800109.0998565
 10
4999706.209573028
 20
989800109.1601422
 10
4999706.013715914
 20
989800109.2037135
 10
4999705.814858811
 20
989800109.2297137
 10
4999705.614287308
 20
989800109.2385706
  0
LINE
  5
72C
330
1E
100
AcDbEntity
  8
0
  6
C6CONTINUOUS
 62
     5
100
AcDbLine
 10
4999708.514287421
 20
989800106.9349993
 30
0.0
 11
4999702.51428739
 21
989800106.9349993
 31
0.0
  0
LINE
  5
734
330
1E
100
AcDbEntity
  8
0
  6
C6CONTINUOUS
 62
     5
100
AcDbLine
 10
4999680.614287458
 20
989799992.8820796
 30
0.0
 11
4999680.614287458
 21
989800033.9349998
 31
0.0
  0
LINE
  5
735
330
1E
100
AcDbEntity
  8
0
  6
C6CONTINUOUS
 62
     5
100
AcDbLine
 10
4999695.61428737
 20
989799992.8060759
 30
0.0
 11
4999695.61428737
 21
989800033.9349998
 31
0.0
  0
LINE
  5
736
330
1E
100
AcDbEntity
  8
0
  6
C6CONTINUOUS
 62
     5
100
AcDbLine
 10
4999680.614287458
 20
989799995.731858
 30
0.0
 11
4999695.61428737
 21
989799995.731858
 31
0.0
  0
LINE
  5
737
330
1E
100
AcDbEntity
  8
0
  6
C6CONTINUOUS
 62
     5
100
AcDbLine
 10
4999683.5121447
 20
989799996.5084293
 30
0.0
 11
4999680.614287458
 21
989799995.731858
 31
0.0
  0
LINE
  5
738
330
1E
100
AcDbEntity
  8
0
  6
C6CONTINUOUS
 62
     5
100
AcDbLine
 10
4999680.614287458
 20
989799995.731858
 30
0.0
 11
4999683.5121447
 21
989799994.9554293
 31
0.0
  0
LINE
  5
739
330
1E
100
AcDbEntity
  8
0
  6
C6CONTINUOUS
 62
     5
100
AcDbLine
 10
4999692.7164303
 20
989799994.9554293
 30
0.0
 11
4999695.61428737
 21
989799995.731858
 31
0.0
  0
LINE
  5
73A
330
1E
100
AcDbEntity
  8
0
  6
C6CONTINUOUS
 62
     5
100
AcDbLine
 10
4999695.61428737
 20
989799995.731858
 30
0.0
 11
4999692.7164303
 21
989799996.5084293
 31
0.0
  0
TEXT
  5
73B
102
{ACAD_REACTORS
330
1680
102
}
330
1E
100
AcDbEntity
  8
0
  6
C6CONTINUOUS
 62
     5
100
AcDbText
 10
4999684.99350416
 20
989799996.2325725
 30
0.0
 40
2.999999981999998
  1
１
  7
BIGFONT
100
AcDbText
  0
TEXT
  5
73C
102
{ACAD_REACTORS
330
1680
102
}
330
1E
100
AcDbEntity
  8
0
  6
C6CONTINUOUS
 62
     5
100
AcDbText
 10
4999687.993647056
 20
989799996.2325725
 30
0.0
 40
2.999999981999998
  1
５
  7
BIGFONT
100
AcDbText
  0
LINE
  5
73D
330
1E
100
AcDbEntity
  8
0
  6
C6CONTINUOUS
 62
     5
100
AcDbLine
 10
4999743.01428718
 20
989800103.3135708
 30
0.0
 11
4999743.01428718
 21
989800177.3998565
 31
0.0
  0
LINE
  5
74D
330
1E
100
AcDbEntity
  8
0
  6
C6CONTINUOUS
 62
     7
100
AcDbLine
 10
4999740.6142871
 20
989800023.0352856
 30
0.0
 11
4999740.6142871
 21
989800100.842428
 31
0.0
  0
LINE
  5
74E
330
1E
100
AcDbEntity
  8
0
  6
C6CONTINUOUS
 62
     7
100
AcDbLine
 10
4999742.614287224
 20
989800023.0352856
 30
0.0
 11
4999742.614287224
 21
989800100.842428
 31
0.0
  0
LINE
  5
74F
330
1E
100
AcDbEntity
  8
0
  6
C6CONTINUOUS
 62
     7
100
AcDbLine
 10
4999743.114287085
 20
989800023.0349998
 30
0.0
 11
4999743.114287085
 21
989800100.842428
 31
0.0
  0
LINE
  5
750
330
1E
100
AcDbEntity
  8
0
  6
C6CONTINUOUS
 62
     7
100
AcDbLine
 10
4999742.614287224
 20
989800023.0349998
 30
0.0
 11
4999742.614287224
 21
989800100.842428
 31
0.0
  0
LINE
  5
751
330
1E
100
AcDbEntity
  8
0
  6
C6CONTINUOUS
 62
     7
100
AcDbLine
 10
4999741.114287131
 20
989800023.0349998
 30
0.0
 11
4999741.114287131
 21
989800100.842428
 31
0.0
  0
LINE
  5
752
330
1E
100
AcDbEntity
  8
0
  6
C6CONTINUOUS
 62
     7
100
AcDbLine
 10
4999740.6142871
 20
989800023.0349998
 30
0.0
 11
4999740.6142871
 21
989800100.842428
 31
0.0
  0
LINE
  5
753
330
1E
100
AcDbEntity
  8
0
  6
C6CONTINUOUS
 62
     7
100
AcDbLine
 10
4999730.614287158
 20
989800023.0349998
 30
0.0
 11
4999730.614287158
 21
989800100.8421424
 31
0.0
  0
LINE
  5
754
330
1E
100
AcDbEntity
  8
0
  6
C6CONTINUOUS
 62
     7
100
AcDbLine
 10
4999732.614287284
 20
989800023.0349998
 30
0.0
 11
4999732.614287284
 21
989800100.8421424
 31
0.0
  0
LINE
  5
76F
330
1E
100
AcDbEntity
  8
0
  6
C6CONTINUOUS
 62
     7
100
AcDbLine
 10
4999938.299999952
 20
989800011.9349999
 30
0.0
 11
4999936.800000027
 21
989800011.9349999
 31
0.0
  0
LINE
  5
770
330
1E
100
AcDbEntity
  8
0
  6
C6CONTINUOUS
 62
     7
100
AcDbLine
 10
4999933.800000014
 20
989800022.935
 30
0.0
 11
4999933.800000014
 21
989800100.7349996
 31
0.0
  0
LINE
  5
771
330
1E
100
AcDbEntity
  8
0
  6
C6CONTINUOUS
 62
     7
100
AcDbLine
 10
4999838.800000583
 20
989800100.7349996
 30
0.0
 11
4999838.800000583
 21
989800022.935
 31
0.0
  0
LINE
  5
772
330
1E
100
AcDbEntity
  8
0
  6
C6CONTINUOUS
 62
     7
100
AcDbLine
 10
4999904.830000295
 20
989800022.935
 30
0.0
 11
4999904.830000295
 21
989800100.7349996
 31
0.0
  0
LINE
  5
773
330
1E
100
AcDbEntity
  8
0
  6
C6CONTINUOUS
 62
     7
100
AcDbLine
 10
4999884.810000332
 20
989800022.935
 30
0.0
 11
4999884.810000332
 21
989800100.7349996
 31
0.0
  0
LINE
  5
774
330
1E
100
AcDbEntity
  8
0
  6
C6CONTINUOUS
 62
     7
100
AcDbLine
 10
4999886.810000283
 20
989800022.935
 30
0.0
 11
4999886.810000283
 21
989800100.7349996
 31
0.0
  0
LINE
  5
775
330
1E
100
AcDbEntity
  8
0
  6
C6CONTINUOUS
 62
     7
100
AcDbLine
 10
4999894.820000228
 20
989800022.935
 30
0.0
 11
4999894.820000228
 21
989800100.7349996
 31
0.0
  0
LINE
  5
776
330
1E
100
AcDbEntity
  8
0
  6
C6CONTINUOUS
 62
     7
100
AcDbLine
 10
4999896.820000352
 20
989800022.935
 30
0.0
 11
4999896.820000352
 21
989800100.7349996
 31
0.0
  0
LINE
  5
777
330
1E
100
AcDbEntity
  8
0
  6
C6CONTINUOUS
 62
     7
100
AcDbLine
 10
4999938.299999952
 20
989800111.9349991
 30
0.0
 11
4999936.800000027
 21
989800111.9349991
 31
0.0
  0
LINE
  5
778
330
1E
100
AcDbEntity
  8
0
  6
C6CONTINUOUS
 62
     7
100
AcDbLine
 10
4999936.800000027
 20
989800100.4349994
 30
0.0
 11
4999933.800000014
 21
989800100.4349994
 31
0.0
  0
LINE
  5
779
330
1E
100
AcDbEntity
  8
0
  6
C6CONTINUOUS
 62
     7
100
AcDbLine
 10
4999936.800000027
 20
989800111.9349991
 30
0.0
 11
4999936.800000027
 21
989800100.4349994
 31
0.0
  0
LWPOLYLINE
  5
77A
330
1E
100
AcDbEntity
  8
0
  6
C6CONTINUOUS
 62
     7
100
AcDbPolyline
 90
       19
 70
     0
 43
0.0
 10
4999937.30000006
 20
989800098.9349995
 10
4999937.387142902
 20
989800098.9388565
 10
4999937.473571509
 20
989800098.9502852
 10
4999937.558857241
 20
989800098.969142
 10
4999937.6420001
 20
989800098.995285
 10
4999937.722571444
 20
989800099.0287137
 10
4999937.800000092
 20
989800099.0689997
 10
4999937.873571466
 20
989800099.1158566
 10
4999937.942857098
 20
989800099.1689992
 10
4999938.00714292
 20
989800099.2279994
 10
4999938.065999953
 20
989800099.2922852
 10
4999938.119142941
 20
989800099.3614278
 10
4999938.166000027
 20
989800099.4349994
 10
4999938.206285784
 20
989800099.5124279
 10
4999938.239714281
 20
989800099.5929994
 10
4999938.26585722
 20
989800099.6762847
 10
4999938.284857137
 20
989800099.7614275
 10
4999938.29614285
 20
989800099.8478563
 10
4999938.299999952
 20
989800099.9349994
  0
LINE
  5
78F
330
1E
100
AcDbEntity
  8
0
  6
C6CONTINUOUS
 62
     7
100
AcDbLine
 10
4999933.800000014
 20
989800098.9349991
 30
0.0
 11
4999937.30000006
 21
989800098.9349991
 31
0.0
  0
LINE
  5
790
330
1E
100
AcDbEntity
  8
0
  6
C6CONTINUOUS
 62
     7
100
AcDbLine
 10
4999938.299999952
 20
989800111.9349991
 30
0.0
 11
4999938.299999952
 21
989800099.9349994
 31
0.0
  0
LWPOLYLINE
  5
791
330
1E
100
AcDbEntity
  8
0
  6
C6CONTINUOUS
 62
     7
100
AcDbPolyline
 90
       19
 70
     0
 43
0.0
 10
4999934.300000044
 20
989800024.9349999
 10
4999934.301857154
 20
989800024.8914284
 10
4999934.307571538
 20
989800024.8481427
 10
4999934.316999969
 20
989800024.8055712
 10
4999934.330142965
 20
989800024.7639995
 10
4999934.346857129
 20
989800024.723714
 10
4999934.367000092
 20
989800024.6849996
 10
4999934.390428633
 20
989800024.6481423
 10
4999934.417000044
 20
989800024.6135712
 10
4999934.44642856
 20
989800024.5814282
 10
4999934.478571473
 20
989800024.5519998
 10
4999934.513142846
 20
989800024.5254282
 10
4999934.549999974
 20
989800024.5019998
 10
4999934.588714384
 20
989800024.481857
 10
4999934.62899997
 20
989800024.4651427
 10
4999934.670571485
 20
989800024.4519998
 10
4999934.713142825
 20
989800024.4425713
 10
4999934.75642857
 20
989800024.4368569
 10
4999934.800000075
 20
989800024.4349999
  0
LWPOLYLINE
  5
7A6
330
1E
100
AcDbEntity
  8
0
  6
C6CONTINUOUS
 62
     7
100
AcDbPolyline
 90
       19
 70
     0
 43
0.0
 10
4999934.800000075
 20
989800036.9349995
 10
4999934.75642857
 20
989800036.9331427
 10
4999934.713142825
 20
989800036.9274278
 10
4999934.670571485
 20
989800036.9179998
 10
4999934.62899997
 20
989800036.9048567
 10
4999934.588714384
 20
989800036.8882854
 10
4999934.549999974
 20
989800036.8679998
 10
4999934.513142846
 20
989800036.844571
 10
4999934.478571473
 20
989800036.8179998
 10
4999934.44642856
 20
989800036.7885712
 10
4999934.417000044
 20
989800036.7564284
 10
4999934.390428633
 20
989800036.7218571
 10
4999934.367000092
 20
989800036.6849998
 10
4999934.346857129
 20
989800036.6462856
 10
4999934.330142965
 20
989800036.6059999
 10
4999934.316999969
 20
989800036.5644284
 10
4999934.307571538
 20
989800036.5218567
 10
4999934.301857154
 20
989800036.4785712
 10
4999934.300000044
 20
989800036.4349995
  0
LINE
  5
7BB
330
1E
100
AcDbEntity
  8
0
  6
C6CONTINUOUS
 62
     7
100
AcDbLine
 10
4999934.300000044
 20
989800036.4349995
 30
0.0
 11
4999934.300000044
 21
989800024.9349999
 31
0.0
  0
LINE
  5
7BC
330
1E
100
AcDbEntity
  8
0
  6
C6CONTINUOUS
 62
     7
100
AcDbLine
 10
4999935.300000107
 20
989800071.9349996
 30
0.0
 11
4999935.300000107
 21
989800073.9349996
 31
0.0
  0
LINE
  5
7BD
330
1E
100
AcDbEntity
  8
0
  6
C6CONTINUOUS
 62
     7
100
AcDbLine
 10
4999935.300000107
 20
989800073.9349996
 30
0.0
 11
4999934.300000044
 21
989800074.9349996
 31
0.0
  0
LINE
  5
7BE
330
1E
100
AcDbEntity
  8
0
  6
C6CONTINUOUS
 62
     7
100
AcDbLine
 10
4999934.300000044
 20
989800074.9349996
 30
0.0
 11
4999934.300000044
 21
989800076.9349996
 31
0.0
  0
LWPOLYLINE
  5
7BF
330
1E
100
AcDbEntity
  8
0
  6
C6CONTINUOUS
 62
     7
100
AcDbPolyline
 90
       19
 70
     0
 43
0.0
 10
4999938.299999952
 20
989800085.9349995
 10
4999938.29614285
 20
989800086.022285
 10
4999938.284857137
 20
989800086.108714
 10
4999938.26585722
 20
989800086.1938568
 10
4999938.239714281
 20
989800086.2769995
 10
4999938.206285784
 20
989800086.3577136
 10
4999938.166000027
 20
989800086.4349995
 10
4999938.119142941
 20
989800086.5087137
 10
4999938.065999953
 20
989800086.5778564
 10
4999938.00714292
 20
989800086.6421424
 10
4999937.942857098
 20
989800086.7009995
 10
4999937.873571466
 20
989800086.7542851
 10
4999937.800000092
 20
989800086.8009996
 10
4999937.722571444
 20
989800086.841285
 10
4999937.6420001
 20
989800086.8747139
 10
4999937.558857241
 20
989800086.9009996
 10
4999937.473571509
 20
989800086.9198568
 10
4999937.387142902
 20
989800086.9312854
 10
4999937.30000006
 20
989800086.9349994
  0
LINE
  5
7D4
330
1E
100
AcDbEntity
  8
0
  6
C6CONTINUOUS
 62
     7
100
AcDbLine
 10
4999933.800000014
 20
989800087.4349994
 30
0.0
 11
4999937.30000006
 21
989800086.9349994
 31
0.0
  0
LINE
  5
7D5
330
1E
100
AcDbEntity
  8
0
  6
C6CONTINUOUS
 62
     7
100
AcDbLine
 10
4999933.800000014
 20
989800071.9349996
 30
0.0
 11
4999935.300000107
 21
989800071.9349996
 31
0.0
  0
LINE
  5
7D6
330
1E
100
AcDbEntity
  8
0
  6
C6CONTINUOUS
 62
     7
100
AcDbLine
 10
4999934.300000044
 20
989800076.9349996
 30
0.0
 11
4999936.299999998
 21
989800076.9349996
 31
0.0
  0
LINE
  5
7D7
330
1E
100
AcDbEntity
  8
0
  6
C6CONTINUOUS
 62
     7
100
AcDbLine
 10
4999936.299999998
 20
989800076.9349996
 30
0.0
 11
4999936.299999998
 21
989800075.4349995
 31
0.0
  0
LWPOLYLINE
  5
7D8
330
1E
100
AcDbEntity
  8
0
  6
C6CONTINUOUS
 62
     7
100
AcDbPolyline
 90
       19
 70
     0
 43
0.0
 10
4999936.299999999
 20
989800075.4349995
 10
4999936.301857109
 20
989800075.3914278
 10
4999936.307571491
 20
989800075.3482852
 10
4999936.317000095
 20
989800075.3055713
 10
4999936.330142919
 20
989800075.2639994
 10
4999936.346857253
 20
989800075.2237141
 10
4999936.367000047
 20
989800075.1849995
 10
4999936.390428588
 20
989800075.1482854
 10
4999936.416999998
 20
989800075.1135707
 10
4999936.446428685
 20
989800075.0814279
 10
4999936.478571426
 20
989800075.0519996
 10
4999936.513142971
 20
989800075.0254283
 10
4999936.550000098
 20
989800075.0019994
 10
4999936.588714336
 20
989800074.9818566
 10
4999936.629000096
 20
989800074.9652851
 10
4999936.670571439
 20
989800074.9519994
 10
4999936.71314295
 20
989800074.9425706
 10
4999936.756428523
 20
989800074.9369995
 10
4999936.800000027
 20
989800074.9349996
  0
LINE
  5
7ED
330
1E
100
AcDbEntity
  8
0
  6
C6CONTINUOUS
 62
     7
100
AcDbLine
 10
4999936.800000027
 20
989800074.9349996
 30
0.0
 11
4999937.800000092
 21
989800074.9349996
 31
0.0
  0
LINE
  5
7EE
330
1E
100
AcDbEntity
  8
0
  6
C6CONTINUOUS
 62
     7
100
AcDbLine
 10
4999933.800000014
 20
989800039.9349998
 30
0.0
 11
4999935.300000107
 21
989800039.9349998
 31
0.0
  0
LINE
  5
7EF
330
1E
100
AcDbEntity
  8
0
  6
C6CONTINUOUS
 62
     7
100
AcDbLine
 10
4999934.800000075
 20
989800036.9349999
 30
0.0
 11
4999938.299999952
 21
989800036.9349999
 31
0.0
  0
LINE
  5
7F0
330
1E
100
AcDbEntity
  8
0
  6
C6CONTINUOUS
 62
     7
100
AcDbLine
 10
4999936.800000027
 20
989800011.9349999
 30
0.0
 11
4999936.800000027
 21
989800024.4349995
 31
0.0
  0
LINE
  5
7F1
330
1E
100
AcDbEntity
  8
0
  6
C6CONTINUOUS
 62
     7
100
AcDbLine
 10
4999927.300000121
 20
989800021.9349999
 30
0.0
 11
4999927.300000121
 21
989800021.4349998
 31
0.0
  0
LINE
  5
7F2
330
1E
100
AcDbEntity
  8
0
  6
C6CONTINUOUS
 62
     7
100
AcDbLine
 10
4999930.300000136
 20
989800021.9349999
 30
0.0
 11
4999927.300000121
 21
989800021.9349999
 31
0.0
  0
LINE
  5
7F3
330
1E
100
AcDbEntity
  8
0
  6
C6CONTINUOUS
 62
     7
100
AcDbLine
 10
4999927.300000121
 20
989800021.4349998
 30
0.0
 11
4999929.800000105
 21
989800021.4349998
 31
0.0
  0
LWPOLYLINE
  5
7F4
330
1E
100
AcDbEntity
  8
0
  6
C6CONTINUOUS
 62
     7
100
AcDbPolyline
 90
       19
 70
     0
 43
0.0
 10
4999929.800000105
 20
989800021.4349998
 10
4999929.843571441
 20
989800021.436857
 10
4999929.886857183
 20
989800021.4425712
 10
4999929.929428697
 20
989800021.4519999
 10
4999929.97100004
 20
989800021.4651426
 10
4999930.011285797
 20
989800021.4818571
 10
4999930.050000036
 20
989800021.5019996
 10
4999930.086857165
 20
989800021.5254283
 10
4999930.121428708
 20
989800021.5519996
 10
4999930.153571451
 20
989800021.5814283
 10
4999930.183000136
 20
989800021.6135713
 10
4999930.209571544
 20
989800021.6481428
 10
4999930.233000088
 20
989800021.6849998
 10
4999930.253142882
 20
989800021.7237141
 10
4999930.269857217
 20
989800021.7639999
 10
4999930.283000041
 20
989800021.8055713
 10
4999930.292428643
 20
989800021.8481428
 10
4999930.298142856
 20
989800021.8914283
 10
4999930.300000136
 20
989800021.9349999
  0
LWPOLYLINE
  5
809
330
1E
100
AcDbEntity
  8
0
  6
C6CONTINUOUS
 62
     7
100
AcDbPolyline
 90
       19
 70
     0
 43
0.0
 10
4999935.300000107
 20
989800021.9349999
 10
4999935.387142949
 20
989800021.938857
 10
4999935.473571386
 20
989800021.9501426
 10
4999935.558857115
 20
989800021.9691427
 10
4999935.641999977
 20
989800021.9952855
 10
4999935.722571491
 20
989800022.0287142
 10
4999935.799999967
 20
989800022.0689997
 10
4999935.873571513
 20
989800022.1158572
 10
4999935.942857142
 20
989800022.1690001
 10
4999936.007142967
 20
989800022.2278572
 10
4999936.065999998
 20
989800022.2921426
 10
4999936.119142817
 20
989800022.3614282
 10
4999936.166000072
 20
989800022.4349999
 10
4999936.206285831
 20
989800022.5124283
 10
4999936.239714328
 20
989800022.5930001
 10
4999936.265857095
 20
989800022.6761428
 10
4999936.284857183
 20
989800022.7614287
 10
4999936.296142896
 20
989800022.847857
 10
4999936.299999999
 20
989800022.935
  0
LINE
  5
81E
330
1E
100
AcDbEntity
  8
0
  6
C6CONTINUOUS
 62
     7
100
AcDbLine
 10
4999936.299999998
 20
989800024.4349995
 30
0.0
 11
4999936.299999998
 21
989800022.935
 31
0.0
  0
LINE
  5
81F
330
1E
100
AcDbEntity
  8
0
  6
C6CONTINUOUS
 62
     7
100
AcDbLine
 10
4999934.800000075
 20
989800024.4349995
 30
0.0
 11
4999938.299999952
 21
989800024.4349995
 31
0.0
  0
LINE
  5
820
330
1E
100
AcDbEntity
  8
0
  6
C6CONTINUOUS
 62
     7
100
AcDbLine
 10
4999935.799999967
 20
989800041.4349995
 30
0.0
 11
4999938.299999952
 21
989800039.4349995
 31
0.0
  0
LINE
  5
821
330
1E
100
AcDbEntity
  8
0
  6
C6CONTINUOUS
 62
     7
100
AcDbLine
 10
4999933.800000014
 20
989800039.4349995
 30
0.0
 11
4999937.199999986
 21
989800039.4349995
 31
0.0
  0
LINE
  5
822
330
1E
100
AcDbEntity
  8
0
  6
C6CONTINUOUS
 62
     7
100
AcDbLine
 10
4999936.800000027
 20
989800037.9349998
 30
0.0
 11
4999936.800000027
 21
989800036.9349999
 31
0.0
  0
LINE
  5
823
330
1E
100
AcDbEntity
  8
0
  6
C6CONTINUOUS
 62
     7
100
AcDbLine
 10
4999933.800000014
 20
989800037.9349998
 30
0.0
 11
4999936.800000027
 21
989800037.9349998
 31
0.0
  0
LINE
  5
824
330
1E
100
AcDbEntity
  8
0
  6
C6CONTINUOUS
 62
     7
100
AcDbLine
 10
4999938.299999952
 20
989800037.9349998
 30
0.0
 11
4999938.299999952
 21
989800011.9349999
 31
0.0
  0
LWPOLYLINE
  5
825
330
1E
100
AcDbEntity
  8
0
  6
C6CONTINUOUS
 62
     7
100
AcDbPolyline
 90
       19
 70
     0
 43
0.0
 10
4999938.299999952
 20
989800037.9349999
 10
4999938.294285739
 20
989800038.0657141
 10
4999938.277142935
 20
989800038.1955712
 10
4999938.248857124
 20
989800038.3232851
 10
4999938.209571533
 20
989800038.4479995
 10
4999938.159571408
 20
989800038.568857
 10
4999938.098999979
 20
989800038.6849995
 10
4999938.028714352
 20
989800038.7954283
 10
4999937.949142831
 20
989800038.8992855
 10
4999937.860714235
 20
989800038.995714
 10
4999937.764142958
 20
989800039.0841426
 10
4999937.660428662
 20
989800039.163714
 10
4999937.549999991
 20
989800039.2339996
 10
4999937.433857104
 20
989800039.2945712
 10
4999937.313000001
 20
989800039.3445713
 10
4999937.18814292
 20
989800039.383857
 10
4999937.060571438
 20
989800039.4122856
 10
4999936.930714376
 20
989800039.4292855
 10
4999936.800000027
 20
989800039.4349995
  0
LINE
  5
83A
330
1E
100
AcDbEntity
  8
0
  6
C6CONTINUOUS
 62
     7
100
AcDbLine
 10
4999938.299999952
 20
989800039.4349995
 30
0.0
 11
4999938.299999952
 21
989800038.4349996
 31
0.0
  0
LINE
  5
83B
330
1E
100
AcDbEntity
  8
0
  6
C6CONTINUOUS
 62
     7
100
AcDbLine
 10
4999938.299999952
 20
989800075.4349995
 30
0.0
 11
4999938.299999952
 21
989800085.9349995
 31
0.0
  0
LWPOLYLINE
  5
83C
330
1E
100
AcDbEntity
  8
0
  6
C6CONTINUOUS
 62
     7
100
AcDbPolyline
 90
       19
 70
     0
 43
0.0
 10
4999937.800000092
 20
989800074.9349996
 10
4999937.843571428
 20
989800074.9369995
 10
4999937.886857171
 20
989800074.9425706
 10
4999937.929428512
 20
989800074.9519994
 10
4999937.971000027
 20
989800074.9652851
 10
4999938.011285784
 20
989800074.9818566
 10
4999938.050000022
 20
989800075.0019994
 10
4999938.086857149
 20
989800075.0254283
 10
4999938.121428525
 20
989800075.0519996
 10
4999938.153571436
 20
989800075.0814279
 10
4999938.182999952
 20
989800075.1135707
 10
4999938.209571533
 20
989800075.1482854
 10
4999938.233000076
 20
989800075.1849995
 10
4999938.253142867
 20
989800075.2237141
 10
4999938.269857202
 20
989800075.2639994
 10
4999938.283000026
 20
989800075.3055713
 10
4999938.292428629
 20
989800075.3482852
 10
4999938.298142841
 20
989800075.3914278
 10
4999938.299999952
 20
989800075.4349995
  0
LINE
  5
851
330
1E
100
AcDbEntity
  8
0
  6
C6CONTINUOUS
 62
     7
100
AcDbLine
 10
4999935.300000107
 20
989800039.9349998
 30
0.0
 11
4999935.799999967
 21
989800041.4349995
 31
0.0
  0
LINE
  5
852
330
1E
100
AcDbEntity
  8
0
  6
C6CONTINUOUS
 62
     7
100
AcDbLine
 10
4999930.300000136
 20
989800021.9349999
 30
0.0
 11
4999935.300000107
 21
989800021.9349999
 31
0.0
  0
LINE
  5
853
330
1E
100
AcDbEntity
  8
0
  6
C6CONTINUOUS
 62
     7
100
AcDbLine
 10
4999929.800000105
 20
989800022.935
 30
0.0
 11
4999929.800000105
 21
989800021.9349999
 31
0.0
  0
LINE
  5
854
330
1E
100
AcDbEntity
  8
0
  6
C6CONTINUOUS
 62
     7
100
AcDbLine
 10
4999841.800000599
 20
989800100.9349991
 30
0.0
 11
4999865.300000527
 21
989800101.9349994
 31
0.0
  0
LINE
  5
855
330
1E
100
AcDbEntity
  8
0
  6
C6CONTINUOUS
 62
     7
100
AcDbLine
 10
4999865.300000527
 20
989800021.9349999
 30
0.0
 11
4999865.300000527
 21
989800022.935
 31
0.0
  0
LINE
  5
856
330
1E
100
AcDbEntity
  8
0
  6
C6CONTINUOUS
 62
     7
100
AcDbLine
 10
4999869.300000435
 20
989800021.9349999
 30
0.0
 11
4999869.300000435
 21
989800022.935
 31
0.0
  0
LINE
  5
857
330
1E
100
AcDbEntity
  8
0
  6
C6CONTINUOUS
 62
     7
100
AcDbLine
 10
4999865.300000527
 20
989800021.9349999
 30
0.0
 11
4999869.300000435
 21
989800021.9349999
 31
0.0
  0
LINE
  5
858
330
1E
100
AcDbEntity
  8
0
  6
C6CONTINUOUS
 62
     7
100
AcDbLine
 10
4999865.300000527
 20
989800101.9349994
 30
0.0
 11
4999869.300000435
 21
989800101.9349994
 31
0.0
  0
LINE
  5
859
330
1E
100
AcDbEntity
  8
0
  6
C6CONTINUOUS
 62
     7
100
AcDbLine
 10
4999865.300000527
 20
989800101.9349994
 30
0.0
 11
4999865.300000527
 21
989800100.7349996
 31
0.0
  0
LINE
  5
85A
330
1E
100
AcDbEntity
  8
0
  6
C6CONTINUOUS
 62
     7
100
AcDbLine
 10
4999869.300000435
 20
989800101.9349994
 30
0.0
 11
4999869.300000435
 21
989800100.7349996
 31
0.0
  0
LINE
  5
85B
330
1E
100
AcDbEntity
  8
0
  6
C6CONTINUOUS
 62
     7
100
AcDbLine
 10
4999841.300000568
 20
989800100.9349991
 30
0.0
 11
4999841.300000568
 21
989800100.7349996
 31
0.0
  0
LINE
  5
85C
330
1E
100
AcDbEntity
  8
0
  6
C6CONTINUOUS
 62
     7
100
AcDbLine
 10
4999837.80000069
 20
989800022.7349998
 30
0.0
 11
4999837.80000069
 21
989800100.9349991
 31
0.0
  0
LINE
  5
85D
330
1E
100
AcDbEntity
  8
0
  6
C6CONTINUOUS
 62
     7
100
AcDbLine
 10
4999838.800000583
 20
989800022.935
 30
0.0
 11
4999933.800000014
 21
989800022.935
 31
0.0
  0
LINE
  5
85E
330
1E
100
AcDbEntity
  8
0
  6
C6CONTINUOUS
 62
     7
100
AcDbLine
 10
4999841.300000568
 20
989800022.7349998
 30
0.0
 11
4999841.300000568
 21
989800022.935
 31
0.0
  0
LINE
  5
85F
330
1E
100
AcDbEntity
  8
0
  6
C6CONTINUOUS
 62
     7
100
AcDbLine
 10
4999865.300000527
 20
989800021.9349999
 30
0.0
 11
4999841.800000599
 21
989800022.7349998
 31
0.0
  0
LINE
  5
860
330
1E
100
AcDbEntity
  8
0
  6
C6CONTINUOUS
 62
     7
100
AcDbLine
 10
4999841.800000599
 20
989800100.9349991
 30
0.0
 11
4999841.800000599
 21
989800100.7349996
 31
0.0
  0
LINE
  5
861
330
1E
100
AcDbEntity
  8
0
  6
C6CONTINUOUS
 62
     7
100
AcDbLine
 10
4999837.80000069
 20
989800100.9349991
 30
0.0
 11
4999841.800000599
 21
989800100.9349991
 31
0.0
  0
LINE
  5
862
330
1E
100
AcDbEntity
  8
0
  6
C6CONTINUOUS
 62
     7
100
AcDbLine
 10
4999841.800000599
 20
989800022.7349998
 30
0.0
 11
4999837.80000069
 21
989800022.7349998
 31
0.0
  0
LINE
  5
863
330
1E
100
AcDbEntity
  8
0
  6
C6CONTINUOUS
 62
     7
100
AcDbLine
 10
4999841.800000599
 20
989800022.7349998
 30
0.0
 11
4999841.800000599
 21
989800022.935
 31
0.0
  0
LINE
  5
864
330
1E
100
AcDbEntity
  8
0
  6
C6CONTINUOUS
 62
     7
100
AcDbLine
 10
4999933.800000014
 20
989800100.7349996
 30
0.0
 11
4999838.800000583
 21
989800100.7349996
 31
0.0
  0
LINE
  5
865
330
1E
100
AcDbEntity
  8
0
  6
C6CONTINUOUS
 62
     7
100
AcDbLine
 10
4999876.800000389
 20
989800022.935
 30
0.0
 11
4999876.800000389
 21
989800100.7349996
 31
0.0
  0
LINE
  5
871
330
1E
100
AcDbEntity
  8
0
  6
C6CONTINUOUS
 62
     5
100
AcDbLine
 10
4999938.299999952
 20
989800114.4349994
 30
0.0
 11
4999938.299999952
 21
989800125.7303919
 31
0.0
  0
LINE
  5
872
330
1E
100
AcDbEntity
  8
0
  6
C6CONTINUOUS
 62
     5
100
AcDbLine
 10
4999837.80000069
 20
989800122.649285
 30
0.0
 11
4999937.800000092
 21
989800122.649285
 31
0.0
  0
LINE
  5
873
330
1E
100
AcDbEntity
  8
0
  6
C6CONTINUOUS
 62
     5
100
AcDbLine
 10
4999840.697857761
 20
989800123.4258565
 30
0.0
 11
4999837.80000069
 21
989800122.649285
 31
0.0
  0
LINE
  5
874
330
1E
100
AcDbEntity
  8
0
  6
C6CONTINUOUS
 62
     5
100
AcDbLine
 10
4999837.80000069
 20
989800122.649285
 30
0.0
 11
4999840.697857761
 21
989800121.8728564
 31
0.0
  0
LINE
  5
875
330
1E
100
AcDbEntity
  8
0
  6
C6CONTINUOUS
 62
     5
100
AcDbLine
 10
4999934.902142852
 20
989800121.8728564
 30
0.0
 11
4999937.800000092
 21
989800122.649285
 31
0.0
  0
LINE
  5
876
330
1E
100
AcDbEntity
  8
0
  6
C6CONTINUOUS
 62
     5
100
AcDbLine
 10
4999937.800000092
 20
989800122.649285
 30
0.0
 11
4999934.902142852
 21
989800123.4258565
 31
0.0
  0
TEXT
  5
877
102
{ACAD_REACTORS
330
1675
102
}
330
1E
100
AcDbEntity
  8
0
  6
C6CONTINUOUS
 62
     5
100
AcDbText
 10
4999884.472664898
 20
989800123.1107352
 30
0.0
 40
2.999999981999998
  1
１
  7
BIGFONT
100
AcDbText
  0
TEXT
  5
878
102
{ACAD_REACTORS
330
1675
102
}
330
1E
100
AcDbEntity
  8
0
  6
C6CONTINUOUS
 62
     5
100
AcDbText
 10
4999887.472807793
 20
989800123.1107352
 30
0.0
 40
2.999999981999998
  1
０
  7
BIGFONT
100
AcDbText
  0
TEXT
  5
879
102
{ACAD_REACTORS
330
1675
102
}
330
1E
100
AcDbEntity
  8
0
  6
C6CONTINUOUS
 62
     5
100
AcDbText
 10
4999890.472950692
 20
989800123.1107352
 30
0.0
 40
2.999999981999998
  1
０
  7
BIGFONT
100
AcDbText
  0
LINE
  5
87A
330
1E
100
AcDbEntity
  8
0
  6
C6CONTINUOUS
 62
     5
100
AcDbLine
 10
4999837.80000069
 20
989800125.9351421
 30
0.0
 11
4999837.80000069
 21
989800103.9349994
 31
0.0
  0
LINE
  5
881
330
1E
100
AcDbEntity
  8
0
  6
CENTERX2
 62
     1
100
AcDbLine
 10
4999833.800000613
 20
989800061.9349996
 30
0.0
 11
4999938.799999983
 21
989800061.9349996
 31
0.0
  0
LINE
  5
882
330
1E
100
AcDbEntity
  8
0
  6
C6CONTINUOUS
 62
     5
100
AcDbLine
 10
4999814.228572261
 20
989800021.9349999
 30
0.0
 11
4999814.228572261
 21
989800101.9349994
 31
0.0
  0
LINE
  5
883
330
1E
100
AcDbEntity
  8
0
  6
C6CONTINUOUS
 62
     5
100
AcDbLine
 10
4999813.452143601
 20
989800024.8328569
 30
0.0
 11
4999814.228572261
 21
989800021.9349999
 31
0.0
  0
LINE
  5
884
330
1E
100
AcDbEntity
  8
0
  6
C6CONTINUOUS
 62
     5
100
AcDbLine
 10
4999814.228572261
 20
989800021.9349999
 30
0.0
 11
4999815.005143633
 21
989800024.8328569
 31
0.0
  0
LINE
  5
885
330
1E
100
AcDbEntity
  8
0
  6
C6CONTINUOUS
 62
     5
100
AcDbLine
 10
4999815.005143633
 20
989800099.0372851
 30
0.0
 11
4999814.228572261
 21
989800101.9349994
 31
0.0
  0
LINE
  5
886
330
1E
100
AcDbEntity
  8
0
  6
C6CONTINUOUS
 62
     5
100
AcDbLine
 10
4999814.228572261
 20
989800101.9349994
 30
0.0
 11
4999813.452143601
 21
989800099.0372851
 31
0.0
  0
TEXT
  5
887
330
1E
100
AcDbEntity
  8
0
  6
C6CONTINUOUS
 62
     5
100
AcDbText
 10
4999813.228572115
 20
989800058.9349996
 30
0.0
 40
2.999999981999998
  1
８
 50
90.0
  7
BIGFONT
100
AcDbText
  0
TEXT
  5
888
330
1E
100
AcDbEntity
  8
0
  6
C6CONTINUOUS
 62
     5
100
AcDbText
 10
4999813.228572115
 20
989800061.9349996
 30
0.0
 40
2.999999981999998
  1
０
 50
90.0
  7
BIGFONT
100
AcDbText
  0
LINE
  5
889
330
1E
100
AcDbEntity
  8
0
  6
C6CONTINUOUS
 62
     5
100
AcDbLine
 10
4999810.800000717
 20
989800101.9349994
 30
0.0
 11
4999848.813143346
 21
989800101.9349994
 31
0.0
  0
LINE
  5
88A
330
1E
100
AcDbEntity
  8
0
  6
C6CONTINUOUS
 62
     5
100
AcDbLine
 10
4999810.800000717
 20
989800021.9349999
 30
0.0
 11
4999848.800000523
 21
989800021.9349999
 31
0.0
  0
LWPOLYLINE
  5
88B
330
1E
100
AcDbEntity
  8
0
  6
C6CONTINUOUS
 62
     7
100
AcDbPolyline
 90
       19
 70
     0
 43
0.0
 10
4999838.800000583
 20
989800154.4349988
 10
4999838.801857693
 20
989800154.3914276
 10
4999838.807572076
 20
989800154.3481415
 10
4999838.81700068
 20
989800154.3055704
 10
4999838.830143503
 20
989800154.263999
 10
4999838.846857838
 20
989800154.2237132
 10
4999838.867000632
 20
989800154.1849989
 10
4999838.890429175
 20
989800154.1481416
 10
4999838.917000583
 20
989800154.1135704
 10
4999838.946429268
 20
989800154.0814275
 10
4999838.978572011
 20
989800154.0519988
 10
4999839.013143556
 20
989800154.0254275
 10
4999839.050000684
 20
989800154.0019988
 10
4999839.088714922
 20
989800153.9818562
 10
4999839.12900068
 20
989800153.9651417
 10
4999839.170572022
 20
989800153.951999
 10
4999839.213143535
 20
989800153.9425703
 10
4999839.256429108
 20
989800153.9368561
 10
4999839.300000615
 20
989800153.9349989
  0
LINE
  5
8A0
330
1E
100
AcDbEntity
  8
0
  6
C6CONTINUOUS
 62
     7
100
AcDbLine
 10
4999876.800000389
 20
989800190.7349987
 30
0.0
 11
4999876.800000389
 21
989800199.6349986
 31
0.0
  0
LINE
  5
8A1
330
1E
100
AcDbEntity
  8
0
  6
C6CONTINUOUS
 62
     7
100
AcDbLine
 10
4999931.600000079
 20
989800187.3349986
 30
0.0
 11
4999931.600000079
 21
989800188.3349989
 31
0.0
  0
LINE
  5
8A2
330
1E
100
AcDbEntity
  8
0
  6
C6CONTINUOUS
 62
     7
100
AcDbLine
 10
4999931.600000079
 20
989800188.3349989
 30
0.0
 11
4999933.800000014
 21
989800188.3349989
 31
0.0
  0
LINE
  5
8A3
330
1E
100
AcDbEntity
  8
0
  6
C6CONTINUOUS
 62
     7
100
AcDbLine
 10
4999929.800000105
 20
989800187.3349986
 30
0.0
 11
4999929.800000105
 21
989800230.5349985
 31
0.0
  0
LINE
  5
8A4
330
1E
100
AcDbEntity
  8
0
  6
C6CONTINUOUS
 62
     7
100
AcDbLine
 10
4999877.100000442
 20
989800213.6849989
 30
0.0
 11
4999899.000000202
 21
989800213.6849989
 31
0.0
  0
LINE
  5
8A5
330
1E
100
AcDbEntity
  8
0
  6
C6CONTINUOUS
 62
     7
100
AcDbLine
 10
4999899.300000254
 20
989800213.3849985
 30
0.0
 11
4999899.300000254
 21
989800204.4849986
 31
0.0
  0
LINE
  5
8A6
330
1E
100
AcDbEntity
  8
0
  6
C6CONTINUOUS
 62
     7
100
AcDbLine
 10
4999899.000000202
 20
989800204.1849986
 30
0.0
 11
4999877.100000442
 21
989800204.1849986
 31
0.0
  0
LINE
  5
8A7
330
1E
100
AcDbEntity
  8
0
  6
C6CONTINUOUS
 62
     7
100
AcDbLine
 10
4999877.100000442
 20
989800199.9349988
 30
0.0
 11
4999899.000000202
 21
989800199.9349988
 31
0.0
  0
LINE
  5
8A8
330
1E
100
AcDbEntity
  8
0
  6
C6CONTINUOUS
 62
     7
100
AcDbLine
 10
4999899.300000254
 20
989800199.6349986
 30
0.0
 11
4999899.300000254
 21
989800190.7349987
 31
0.0
  0
LINE
  5
8A9
330
1E
100
AcDbEntity
  8
0
  6
C6CONTINUOUS
 62
     7
100
AcDbLine
 10
4999877.100000442
 20
989800190.4349984
 30
0.0
 11
4999899.000000202
 21
989800190.4349984
 31
0.0
  0
LINE
  5
8AA
330
1E
100
AcDbEntity
  8
0
  6
C6CONTINUOUS
 62
     7
100
AcDbLine
 10
4999876.800000389
 20
989800204.4849986
 30
0.0
 11
4999876.800000389
 21
989800213.3849985
 31
0.0
  0
LINE
  5
8AB
330
1E
100
AcDbEntity
  8
0
  6
C6CONTINUOUS
 62
     7
100
AcDbLine
 10
4999869.800000467
 20
989800231.9349984
 30
0.0
 11
4999869.800000467
 21
989800231.3349985
 31
0.0
  0
LWPOLYLINE
  5
8AC
330
1E
100
AcDbEntity
  8
0
  6
C6CONTINUOUS
 62
     7
100
AcDbPolyline
 90
       19
 70
     0
 43
0.0
 10
4999876.800000389
 20
989800190.7349987
 10
4999876.801143265
 20
989800190.7088561
 10
4999876.804571895
 20
989800190.6828556
 10
4999876.810143226
 20
989800190.6574274
 10
4999876.81814319
 20
989800190.6324273
 10
4999876.828143319
 20
989800190.6081416
 10
4999876.840143265
 20
989800190.5849985
 10
4999876.854286084
 20
989800190.5628561
 10
4999876.870143305
 20
989800190.5421415
 10
4999876.887857465
 20
989800190.5228559
 10
4999876.907143313
 20
989800190.5051415
 10
4999876.92785746
 20
989800190.4892842
 10
4999876.950000417
 20
989800190.4751415
 10
4999876.973143194
 20
989800190.4631415
 10
4999876.997429026
 20
989800190.4531415
 10
4999877.022428915
 20
989800190.4451415
 10
4999877.047857449
 20
989800190.4395703
 10
4999877.073857505
 20
989800190.4361413
 10
4999877.100000443
 20
989800190.4349989
  0
LWPOLYLINE
  5
8C1
330
1E
100
AcDbEntity
  8
0
  6
C6CONTINUOUS
 62
     7
100
AcDbPolyline
 90
       19
 70
     0
 43
0.0
 10
4999877.100000443
 20
989800199.9349988
 10
4999877.073857505
 20
989800199.9338557
 10
4999877.047857449
 20
989800199.9304273
 10
4999877.022428915
 20
989800199.9248556
 10
4999876.997429026
 20
989800199.9168556
 10
4999876.973143194
 20
989800199.9068556
 10
4999876.950000417
 20
989800199.8948561
 10
4999876.92785746
 20
989800199.8807131
 10
4999876.907143313
 20
989800199.8648556
 10
4999876.887857465
 20
989800199.8471414
 10
4999876.870143305
 20
989800199.827856
 10
4999876.854286084
 20
989800199.8071416
 10
4999876.840143265
 20
989800199.7849986
 10
4999876.828143319
 20
989800199.761856
 10
4999876.81814319
 20
989800199.7375699
 10
4999876.810143226
 20
989800199.71257
 10
4999876.804571895
 20
989800199.6871414
 10
4999876.801143265
 20
989800199.6611414
 10
4999876.800000389
 20
989800199.6349988
  0
LWPOLYLINE
  5
8D6
330
1E
100
AcDbEntity
  8
0
  6
C6CONTINUOUS
 62
     7
100
AcDbPolyline
 90
       19
 70
     0
 43
0.0
 10
4999899.000000201
 20
989800190.4349989
 10
4999899.026143138
 20
989800190.4361413
 10
4999899.052143196
 20
989800190.4395703
 10
4999899.077571729
 20
989800190.4451415
 10
4999899.102571617
 20
989800190.4531415
 10
4999899.126714566
 20
989800190.4631415
 10
4999899.150000229
 20
989800190.4751415
 10
4999899.172143184
 20
989800190.4892842
 10
4999899.192714618
 20
989800190.5051415
 10
4999899.212143179
 20
989800190.5228559
 10
4999899.229714457
 20
989800190.5421415
 10
4999899.245714558
 20
989800190.5628561
 10
4999899.259714497
 20
989800190.5849985
 10
4999899.271857325
 20
989800190.6081416
 10
4999899.281857451
 20
989800190.6324273
 10
4999899.289714536
 20
989800190.6574274
 10
4999899.29542875
 20
989800190.6828556
 10
4999899.298857378
 20
989800190.7088561
 10
4999899.300000254
 20
989800190.7349987
  0
LWPOLYLINE
  5
8EB
330
1E
100
AcDbEntity
  8
0
  6
C6CONTINUOUS
 62
     7
100
AcDbPolyline
 90
       19
 70
     0
 43
0.0
 10
4999899.300000254
 20
989800199.6349988
 10
4999899.298857378
 20
989800199.6611414
 10
4999899.29542875
 20
989800199.6871414
 10
4999899.289714536
 20
989800199.71257
 10
4999899.281857451
 20
989800199.7375699
 10
4999899.271857325
 20
989800199.761856
 10
4999899.259714497
 20
989800199.7849986
 10
4999899.245714558
 20
989800199.8071416
 10
4999899.229714457
 20
989800199.827856
 10
4999899.212143179
 20
989800199.8471414
 10
4999899.192714618
 20
989800199.8648556
 10
4999899.172143184
 20
989800199.8807131
 10
4999899.150000229
 20
989800199.8948561
 10
4999899.126714566
 20
989800199.9068556
 10
4999899.102571617
 20
989800199.9168556
 10
4999899.077571729
 20
989800199.9248556
 10
4999899.052143196
 20
989800199.9304273
 10
4999899.026143138
 20
989800199.9338557
 10
4999899.000428843
 20
989800199.9349988
  0
LWPOLYLINE
  5
900
330
1E
100
AcDbEntity
  8
0
  6
C6CONTINUOUS
 62
     7
100
AcDbPolyline
 90
       19
 70
     0
 43
0.0
 10
4999899.000000201
 20
989800204.1849984
 10
4999899.026143138
 20
989800204.1861415
 10
4999899.052143196
 20
989800204.1895702
 10
4999899.077571729
 20
989800204.1951416
 10
4999899.102571617
 20
989800204.2031414
 10
4999899.126714566
 20
989800204.2131414
 10
4999899.150000229
 20
989800204.2251414
 10
4999899.172143184
 20
989800204.2392841
 10
4999899.192714618
 20
989800204.2551414
 10
4999899.212143179
 20
989800204.2728556
 10
4999899.229714457
 20
989800204.2921412
 10
4999899.245714558
 20
989800204.3128556
 10
4999899.259714497
 20
989800204.3349986
 10
4999899.271857325
 20
989800204.3581417
 10
4999899.281857451
 20
989800204.3824273
 10
4999899.289714536
 20
989800204.4074273
 10
4999899.29542875
 20
989800204.4328556
 10
4999899.298857378
 20
989800204.4588556
 10
4999899.300000254
 20
989800204.4849986
  0
LWPOLYLINE
  5
915
330
1E
100
AcDbEntity
  8
0
  6
C6CONTINUOUS
 62
     7
100
AcDbPolyline
 90
       19
 70
     0
 43
0.0
 10
4999899.300000254
 20
989800213.3849985
 10
4999899.298857378
 20
989800213.4111411
 10
4999899.29542875
 20
989800213.4371411
 10
4999899.289714536
 20
989800213.4625699
 10
4999899.281857451
 20
989800213.4875699
 10
4999899.271857325
 20
989800213.5118558
 10
4999899.259714497
 20
989800213.5349987
 10
4999899.245714558
 20
989800213.5571411
 10
4999899.229714457
 20
989800213.5778558
 10
4999899.212143179
 20
989800213.5971417
 10
4999899.192714618
 20
989800213.6148557
 10
4999899.172143184
 20
989800213.6307127
 10
4999899.150000229
 20
989800213.6448555
 10
4999899.126714566
 20
989800213.656856
 10
4999899.102571617
 20
989800213.6668557
 10
4999899.077571729
 20
989800213.6748557
 10
4999899.052143196
 20
989800213.6804267
 10
4999899.026143138
 20
989800213.6838556
 10
4999899.000000201
 20
989800213.6849989
  0
LWPOLYLINE
  5
92A
330
1E
100
AcDbEntity
  8
0
  6
C6CONTINUOUS
 62
     7
100
AcDbPolyline
 90
       19
 70
     0
 43
0.0
 10
4999876.800000389
 20
989800204.4849986
 10
4999876.801143265
 20
989800204.4588556
 10
4999876.804571895
 20
989800204.4328556
 10
4999876.810143226
 20
989800204.4074273
 10
4999876.81814319
 20
989800204.3824273
 10
4999876.828143319
 20
989800204.3581417
 10
4999876.840143265
 20
989800204.3349986
 10
4999876.854286084
 20
989800204.3128556
 10
4999876.870143305
 20
989800204.2921412
 10
4999876.887857465
 20
989800204.2728556
 10
4999876.907143313
 20
989800204.2551414
 10
4999876.92785746
 20
989800204.2392841
 10
4999876.950000417
 20
989800204.2251414
 10
4999876.973143194
 20
989800204.2131414
 10
4999876.997429026
 20
989800204.2031414
 10
4999877.022428915
 20
989800204.1951416
 10
4999877.047857449
 20
989800204.1895702
 10
4999877.073857505
 20
989800204.1861415
 10
4999877.100000443
 20
989800204.1849984
  0
LWPOLYLINE
  5
93F
330
1E
100
AcDbEntity
  8
0
  6
C6CONTINUOUS
 62
     7
100
AcDbPolyline
 90
       19
 70
     0
 43
0.0
 10
4999877.100000443
 20
989800213.6849989
 10
4999877.073857505
 20
989800213.6838556
 10
4999877.047857449
 20
989800213.6804267
 10
4999877.022428915
 20
989800213.6748557
 10
4999876.997429026
 20
989800213.6668557
 10
4999876.973143194
 20
989800213.656856
 10
4999876.950000417
 20
989800213.6448555
 10
4999876.92785746
 20
989800213.6307127
 10
4999876.907143313
 20
989800213.6148557
 10
4999876.887857465
 20
989800213.5971417
 10
4999876.870143305
 20
989800213.5778558
 10
4999876.854286084
 20
989800213.5571411
 10
4999876.840143265
 20
989800213.5349987
 10
4999876.828143319
 20
989800213.5118558
 10
4999876.81814319
 20
989800213.4875699
 10
4999876.810143226
 20
989800213.4625699
 10
4999876.804571895
 20
989800213.4371411
 10
4999876.801143265
 20
989800213.4111411
 10
4999876.800000389
 20
989800213.3849985
  0
LINE
  5
954
330
1E
100
AcDbEntity
  8
0
  6
C6CONTINUOUS
 62
     7
100
AcDbLine
 10
4999908.830000203
 20
989800185.9349989
 30
0.0
 11
4999908.830000203
 21
989800176.7349988
 31
0.0
  0
LINE
  5
955
330
1E
100
AcDbEntity
  8
0
  6
C6CONTINUOUS
 62
     7
100
AcDbLine
 10
4999839.300000615
 20
989800261.4349982
 30
0.0
 11
4999869.500000412
 21
989800261.4349982
 31
0.0
  0
LINE
  5
956
330
1E
100
AcDbEntity
  8
0
  6
C6CONTINUOUS
 62
     7
100
AcDbLine
 10
4999839.800000645
 20
989800253.4349982
 30
0.0
 11
4999869.500000412
 21
989800253.4349982
 31
0.0
  0
LINE
  5
957
330
1E
100
AcDbEntity
  8
0
  6
C6CONTINUOUS
 62
     7
100
AcDbLine
 10
4999839.800000645
 20
989800251.4349984
 30
0.0
 11
4999869.500000412
 21
989800251.4349984
 31
0.0
  0
LINE
  5
958
330
1E
100
AcDbEntity
  8
0
  6
C6CONTINUOUS
 62
     7
100
AcDbLine
 10
4999839.800000645
 20
989800243.4349983
 30
0.0
 11
4999869.500000412
 21
989800243.4349983
 31
0.0
  0
LWPOLYLINE
  5
959
330
1E
100
AcDbEntity
  8
0
  6
C6CONTINUOUS
 62
     7
100
AcDbPolyline
 90
       19
 70
     0
 43
0.0
 10
4999869.500000413
 20
989800243.4349983
 10
4999869.526143348
 20
989800243.4361412
 10
4999869.552143237
 20
989800243.4395699
 10
4999869.577571941
 20
989800243.4451411
 10
4999869.602571832
 20
989800243.4531415
 10
4999869.626714777
 20
989800243.4631411
 10
4999869.65000044
 20
989800243.4751411
 10
4999869.672143224
 20
989800243.4892839
 10
4999869.692714661
 20
989800243.5051413
 10
4999869.71214322
 20
989800243.5228557
 10
4999869.729714668
 20
989800243.5421412
 10
4999869.745714768
 20
989800243.5628557
 10
4999869.759714707
 20
989800243.5849985
 10
4999869.771857537
 20
989800243.6081412
 10
4999869.781857491
 20
989800243.6324267
 10
4999869.789714749
 20
989800243.6574266
 10
4999869.79542896
 20
989800243.6828555
 10
4999869.798857588
 20
989800243.7088553
 10
4999869.800000467
 20
989800243.7349985
  0
LINE
  5
96E
330
1E
100
AcDbEntity
  8
0
  6
C6CONTINUOUS
 62
     7
100
AcDbLine
 10
4999869.800000467
 20
989800253.7349984
 30
0.0
 11
4999869.800000467
 21
989800261.1349982
 31
0.0
  0
LWPOLYLINE
  5
96F
330
1E
100
AcDbEntity
  8
0
  6
C6CONTINUOUS
 62
     7
100
AcDbPolyline
 90
       19
 70
     0
 43
0.0
 10
4999869.500000413
 20
989800253.4349982
 10
4999869.526143348
 20
989800253.4361411
 10
4999869.552143237
 20
989800253.4395695
 10
4999869.577571941
 20
989800253.4451412
 10
4999869.602571832
 20
989800253.4531412
 10
4999869.626714777
 20
989800253.4631412
 10
4999869.65000044
 20
989800253.4751411
 10
4999869.672143224
 20
989800253.4892841
 10
4999869.692714661
 20
989800253.5051412
 10
4999869.71214322
 20
989800253.5228554
 10
4999869.729714668
 20
989800253.5421412
 10
4999869.745714768
 20
989800253.5628554
 10
4999869.759714707
 20
989800253.5849984
 10
4999869.771857537
 20
989800253.6081412
 10
4999869.781857491
 20
989800253.632427
 10
4999869.789714749
 20
989800253.6574267
 10
4999869.79542896
 20
989800253.6828556
 10
4999869.798857588
 20
989800253.7088554
 10
4999869.800000467
 20
989800253.7349984
  0
LWPOLYLINE
  5
984
330
1E
100
AcDbEntity
  8
0
  6
C6CONTINUOUS
 62
     7
100
AcDbPolyline
 90
       19
 70
     0
 43
0.0
 10
4999869.800000467
 20
989800251.1349982
 10
4999869.798857588
 20
989800251.161141
 10
4999869.79542896
 20
989800251.1871412
 10
4999869.789714749
 20
989800251.21257
 10
4999869.781857491
 20
989800251.2375699
 10
4999869.771857537
 20
989800251.2618557
 10
4999869.759714707
 20
989800251.2849984
 10
4999869.745714768
 20
989800251.3071412
 10
4999869.729714668
 20
989800251.3278552
 10
4999869.71214322
 20
989800251.3471412
 10
4999869.692714661
 20
989800251.3648554
 10
4999869.672143224
 20
989800251.3807128
 10
4999869.65000044
 20
989800251.3948554
 10
4999869.626714777
 20
989800251.4068553
 10
4999869.602571832
 20
989800251.4168556
 10
4999869.577571941
 20
989800251.4248554
 10
4999869.552143237
 20
989800251.4304266
 10
4999869.526143348
 20
989800251.4338557
 10
4999869.500000413
 20
989800251.4349984
  0
LWPOLYLINE
  5
999
330
1E
100
AcDbEntity
  8
0
  6
C6CONTINUOUS
 62
     7
100
AcDbPolyline
 90
       19
 70
     0
 43
0.0
 10
4999869.800000467
 20
989800261.1349983
 10
4999869.798857588
 20
989800261.1611412
 10
4999869.79542896
 20
989800261.1871412
 10
4999869.789714749
 20
989800261.2125694
 10
4999869.781857491
 20
989800261.2375696
 10
4999869.771857537
 20
989800261.2618556
 10
4999869.759714707
 20
989800261.2849984
 10
4999869.745714768
 20
989800261.3071414
 10
4999869.729714668
 20
989800261.3278553
 10
4999869.71214322
 20
989800261.3471412
 10
4999869.692714661
 20
989800261.3648552
 10
4999869.672143224
 20
989800261.3807122
 10
4999869.65000044
 20
989800261.3948555
 10
4999869.626714777
 20
989800261.4068554
 10
4999869.602571832
 20
989800261.4168557
 10
4999869.577571941
 20
989800261.4248554
 10
4999869.552143237
 20
989800261.4304267
 10
4999869.526143348
 20
989800261.4338556
 10
4999869.500000413
 20
989800261.4349982
  0
LINE
  5
9AE
330
1E
100
AcDbEntity
  8
0
  6
C6CONTINUOUS
 62
     7
100
AcDbLine
 10
4999839.800000645
 20
989800241.4349983
 30
0.0
 11
4999869.500000412
 21
989800241.4349983
 31
0.0
  0
LWPOLYLINE
  5
9AF
330
1E
100
AcDbEntity
  8
0
  6
C6CONTINUOUS
 62
     7
100
AcDbPolyline
 90
       19
 70
     0
 43
0.0
 10
4999869.800000467
 20
989800241.1349985
 10
4999869.798857588
 20
989800241.1611411
 10
4999869.79542896
 20
989800241.1871411
 10
4999869.789714749
 20
989800241.2125695
 10
4999869.781857491
 20
989800241.2375696
 10
4999869.771857537
 20
989800241.2618557
 10
4999869.759714707
 20
989800241.2849983
 10
4999869.745714768
 20
989800241.3071411
 10
4999869.729714668
 20
989800241.3278558
 10
4999869.71214322
 20
989800241.3471413
 10
4999869.692714661
 20
989800241.3648557
 10
4999869.672143224
 20
989800241.3807127
 10
4999869.65000044
 20
989800241.3948557
 10
4999869.626714777
 20
989800241.4068557
 10
4999869.602571832
 20
989800241.4168557
 10
4999869.577571941
 20
989800241.4248557
 10
4999869.552143237
 20
989800241.4304267
 10
4999869.526143348
 20
989800241.4338556
 10
4999869.500000413
 20
989800241.4349983
  0
LWPOLYLINE
  5
9C4
330
1E
100
AcDbEntity
  8
0
  6
C6CONTINUOUS
 62
     7
100
AcDbPolyline
 90
       37
 70
     0
 43
0.0
 10
4999839.800000645
 20
989800253.4349982
 10
4999839.712857803
 20
989800253.4311412
 10
4999839.626429197
 20
989800253.4198557
 10
4999839.541143464
 20
989800253.4008552
 10
4999839.458000606
 20
989800253.3747126
 10
4999839.377429262
 20
989800253.341284
 10
4999839.300000615
 20
989800253.3009984
 10
4999839.226429239
 20
989800253.2541411
 10
4999839.157143438
 20
989800253.2009982
 10
4999839.092857786
 20
989800253.1421411
 10
4999839.034000583
 20
989800253.0778551
 10
4999838.980857764
 20
989800253.0085694
 10
4999838.93400068
 20
989800252.9349982
 10
4999838.893714922
 20
989800252.8575695
 10
4999838.860286253
 20
989800252.7769982
 10
4999838.834143486
 20
989800252.6938554
 10
4999838.815143399
 20
989800252.6085695
 10
4999838.803857685
 20
989800252.5221412
 10
4999838.800000583
 20
989800252.4349983
 10
4999838.803857685
 20
989800252.3478552
 10
4999838.815143399
 20
989800252.261427
 10
4999838.834143486
 20
989800252.1761412
 10
4999838.860286253
 20
989800252.0929983
 10
4999838.893714922
 20
989800252.0124267
 10
4999838.93400068
 20
989800251.9349983
 10
4999838.980857764
 20
989800251.8614267
 10
4999839.034000583
 20
989800251.7921412
 10
4999839.092857786
 20
989800251.7278557
 10
4999839.157143438
 20
989800251.6689984
 10
4999839.226429239
 20
989800251.6158554
 10
4999839.300000615
 20
989800251.5689984
 10
4999839.377429262
 20
989800251.5287128
 10
4999839.458000606
 20
989800251.4952839
 10
4999839.541143464
 20
989800251.4691413
 10
4999839.626429197
 20
989800251.4501412
 10
4999839.712857803
 20
989800251.4388554
 10
4999839.800000645
 20
989800251.4349984
  0
LWPOLYLINE
  5
9EB
330
1E
100
AcDbEntity
  8
0
  6
C6CONTINUOUS
 62
     7
100
AcDbPolyline
 90
       37
 70
     0
 43
0.0
 10
4999839.800000645
 20
989800243.4349983
 10
4999839.712857803
 20
989800243.4311413
 10
4999839.626429197
 20
989800243.4198557
 10
4999839.541143464
 20
989800243.4008557
 10
4999839.458000606
 20
989800243.3747127
 10
4999839.377429262
 20
989800243.3412839
 10
4999839.300000615
 20
989800243.3009985
 10
4999839.226429239
 20
989800243.254141
 10
4999839.157143438
 20
989800243.2009985
 10
4999839.092857786
 20
989800243.1421414
 10
4999839.034000583
 20
989800243.0778557
 10
4999838.980857764
 20
989800243.00857
 10
4999838.93400068
 20
989800242.9349984
 10
4999838.893714922
 20
989800242.8575699
 10
4999838.860286253
 20
989800242.7769982
 10
4999838.834143486
 20
989800242.6938557
 10
4999838.815143399
 20
989800242.6085698
 10
4999838.803857685
 20
989800242.5221411
 10
4999838.800000583
 20
989800242.4349984
 10
4999838.803857685
 20
989800242.3478557
 10
4999838.815143399
 20
989800242.2614268
 10
4999838.834143486
 20
989800242.1761413
 10
4999838.860286253
 20
989800242.0929984
 10
4999838.893714922
 20
989800242.0124267
 10
4999838.93400068
 20
989800241.9349984
 10
4999838.980857764
 20
989800241.8614266
 10
4999839.034000583
 20
989800241.7921412
 10
4999839.092857786
 20
989800241.7278556
 10
4999839.157143438
 20
989800241.6689985
 10
4999839.226429239
 20
989800241.6158556
 10
4999839.300000615
 20
989800241.5689985
 10
4999839.377429262
 20
989800241.5287127
 10
4999839.458000606
 20
989800241.495284
 10
4999839.541143464
 20
989800241.4691411
 10
4999839.626429197
 20
989800241.4501412
 10
4999839.712857803
 20
989800241.4388553
 10
4999839.800000645
 20
989800241.4349983
  0
LWPOLYLINE
  5
A12
330
1E
100
AcDbEntity
  8
0
  6
C6CONTINUOUS
 62
     7
100
AcDbPolyline
 90
       19
 70
     0
 43
0.0
 10
4999838.800000583
 20
989800261.9349982
 10
4999838.801857693
 20
989800261.8914267
 10
4999838.807572076
 20
989800261.8481411
 10
4999838.81700068
 20
989800261.8055695
 10
4999838.830143503
 20
989800261.7639983
 10
4999838.846857838
 20
989800261.7237127
 10
4999838.867000632
 20
989800261.6849982
 10
4999838.890429175
 20
989800261.6481413
 10
4999838.917000583
 20
989800261.6135695
 10
4999838.946429268
 20
989800261.5814267
 10
4999838.978572011
 20
989800261.5519985
 10
4999839.013143556
 20
989800261.5254267
 10
4999839.050000684
 20
989800261.5019985
 10
4999839.088714922
 20
989800261.4818553
 10
4999839.12900068
 20
989800261.4651412
 10
4999839.170572022
 20
989800261.4519985
 10
4999839.213143535
 20
989800261.4425694
 10
4999839.256429108
 20
989800261.4368554
 10
4999839.299143499
 20
989800261.4349982
  0
LINE
  5
A27
330
1E
100
AcDbEntity
  8
0
  6
C6CONTINUOUS
 62
     7
100
AcDbLine
 10
4999869.800000467
 20
989800231.9349984
 30
0.0
 11
4999869.800000467
 21
989800241.1349985
 31
0.0
  0
LINE
  5
A28
330
1E
100
AcDbEntity
  8
0
  6
C6CONTINUOUS
 62
     7
100
AcDbLine
 10
4999869.800000467
 20
989800243.7349985
 30
0.0
 11
4999869.800000467
 21
989800251.1349982
 31
0.0
  0
LWPOLYLINE
  5
A29
330
1E
100
AcDbEntity
  8
0
  6
C6CONTINUOUS
 62
     7
100
AcDbPolyline
 90
       19
 70
     0
 43
0.0
 10
4999933.299999982
 20
989800261.4349982
 10
4999933.343571488
 20
989800261.4368554
 10
4999933.386714352
 20
989800261.4425694
 10
4999933.429428572
 20
989800261.4519985
 10
4999933.471000087
 20
989800261.4651412
 10
4999933.511285845
 20
989800261.4818553
 10
4999933.550000083
 20
989800261.5019985
 10
4999933.586714331
 20
989800261.5254267
 10
4999933.621428587
 20
989800261.5519985
 10
4999933.653571495
 20
989800261.5814267
 10
4999933.683000013
 20
989800261.6135695
 10
4999933.709571423
 20
989800261.6481413
 10
4999933.732999966
 20
989800261.6849982
 10
4999933.753142927
 20
989800261.7237127
 10
4999933.769714383
 20
989800261.7639983
 10
4999933.783000086
 20
989800261.8055695
 10
4999933.792428691
 20
989800261.8481411
 10
4999933.798000022
 20
989800261.8914267
 10
4999933.800000014
 20
989800261.9349982
  0
LINE
  5
A3E
330
1E
100
AcDbEntity
  8
0
  6
C6CONTINUOUS
 62
     7
100
AcDbLine
 10
4999909.130000255
 20
989800176.4349988
 30
0.0
 11
4999932.800000122
 21
989800176.4349988
 31
0.0
  0
LWPOLYLINE
  5
A3F
330
1E
100
AcDbEntity
  8
0
  6
C6CONTINUOUS
 62
     7
100
AcDbPolyline
 90
       38
 70
     0
 43
0.0
 10
4999932.798285721
 20
989800174.4349988
 10
4999932.800000122
 20
989800174.4349988
 10
4999932.887142962
 20
989800174.4388556
 10
4999932.973571401
 20
989800174.4501415
 10
4999933.058714421
 20
989800174.4691416
 10
4999933.141999991
 20
989800174.4952843
 10
4999933.222571505
 20
989800174.528713
 10
4999933.299999982
 20
989800174.5689988
 10
4999933.373571528
 20
989800174.6158561
 10
4999933.442714278
 20
989800174.668999
 10
4999933.5070001
 20
989800174.7278559
 10
4999933.566000012
 20
989800174.7921416
 10
4999933.619142832
 20
989800174.8614273
 10
4999933.666000087
 20
989800174.934999
 10
4999933.706285845
 20
989800175.0124272
 10
4999933.739714343
 20
989800175.092999
 10
4999933.76585711
 20
989800175.1761418
 10
4999933.784714317
 20
989800175.2614273
 10
4999933.796142912
 20
989800175.3478556
 10
4999933.800000014
 20
989800175.4349989
 10
4999933.796142912
 20
989800175.5221416
 10
4999933.784714317
 20
989800175.6085699
 10
4999933.76585711
 20
989800175.693856
 10
4999933.739714343
 20
989800175.7769989
 10
4999933.706285845
 20
989800175.8575702
 10
4999933.666000087
 20
989800175.9349988
 10
4999933.619142832
 20
989800176.0085699
 10
4999933.566000012
 20
989800176.077856
 10
4999933.5070001
 20
989800176.1421415
 10
4999933.442714278
 20
989800176.2009988
 10
4999933.373571528
 20
989800176.2541415
 10
4999933.299999982
 20
989800176.300999
 10
4999933.222571505
 20
989800176.3412844
 10
4999933.141999991
 20
989800176.3747133
 10
4999933.058714421
 20
989800176.400856
 10
4999932.973571401
 20
989800176.4198561
 10
4999932.887142962
 20
989800176.4311416
 10
4999932.801714352
 20
989800176.4349988
  0
LWPOLYLINE
  5
A67
330
1E
100
AcDbEntity
  8
0
  6
C6CONTINUOUS
 62
     7
100
AcDbPolyline
 90
       19
 70
     0
 43
0.0
 10
4999908.830000203
 20
989800176.734999
 10
4999908.831000198
 20
989800176.7088556
 10
4999908.834571708
 20
989800176.6828556
 10
4999908.84014304
 20
989800176.6574273
 10
4999908.848000124
 20
989800176.6324274
 10
4999908.858000249
 20
989800176.6081417
 10
4999908.87014308
 20
989800176.5849988
 10
4999908.884285899
 20
989800176.562856
 10
4999908.900143118
 20
989800176.5421415
 10
4999908.917857278
 20
989800176.522856
 10
4999908.937143127
 20
989800176.5051416
 10
4999908.957857273
 20
989800176.4892844
 10
4999908.980000228
 20
989800176.4751418
 10
4999909.003143009
 20
989800176.4631416
 10
4999909.027428836
 20
989800176.4531416
 10
4999909.052428728
 20
989800176.4451414
 10
4999909.077857261
 20
989800176.4395703
 10
4999909.103857318
 20
989800176.4361415
 10
4999909.130000256
 20
989800176.4349988
  0
LINE
  5
A7C
330
1E
100
AcDbEntity
  8
0
  6
C6CONTINUOUS
 62
     7
100
AcDbLine
 10
4999884.51000028
 20
989800186.4349989
 30
0.0
 11
4999877.100000442
 21
989800186.4349989
 31
0.0
  0
LINE
  5
A7D
330
1E
100
AcDbEntity
  8
0
  6
C6CONTINUOUS
 62
     7
100
AcDbLine
 10
4999884.810000332
 20
989800154.934999
 30
0.0
 11
4999884.810000332
 21
989800186.1349987
 31
0.0
  0
LWPOLYLINE
  5
A7E
330
1E
100
AcDbEntity
  8
0
  6
C6CONTINUOUS
 62
     7
100
AcDbPolyline
 90
       19
 70
     0
 43
0.0
 10
4999884.810000332
 20
989800186.1349987
 10
4999884.808857456
 20
989800186.1611415
 10
4999884.805428997
 20
989800186.1871414
 10
4999884.799714614
 20
989800186.2125699
 10
4999884.791857528
 20
989800186.2375696
 10
4999884.781857403
 20
989800186.2618556
 10
4999884.769714575
 20
989800186.2849984
 10
4999884.755714636
 20
989800186.3071415
 10
4999884.739714707
 20
989800186.3278556
 10
4999884.722143256
 20
989800186.3471415
 10
4999884.702714696
 20
989800186.3648556
 10
4999884.682143258
 20
989800186.3807127
 10
4999884.660000303
 20
989800186.3948561
 10
4999884.636714645
 20
989800186.4068557
 10
4999884.612571698
 20
989800186.4168561
 10
4999884.587571807
 20
989800186.4248561
 10
4999884.562143273
 20
989800186.4304273
 10
4999884.536143217
 20
989800186.4338556
 10
4999884.51000028
 20
989800186.4349989
  0
LINE
  5
A93
330
1E
100
AcDbEntity
  8
0
  6
C6CONTINUOUS
 62
     7
100
AcDbLine
 10
4999876.800000389
 20
989800154.934999
 30
0.0
 11
4999876.800000389
 21
989800186.1349987
 31
0.0
  0
LWPOLYLINE
  5
A94
330
1E
100
AcDbEntity
  8
0
  6
C6CONTINUOUS
 62
     7
100
AcDbPolyline
 90
       19
 70
     0
 43
0.0
 10
4999877.100000443
 20
989800186.4349989
 10
4999877.073857505
 20
989800186.4338556
 10
4999877.047857449
 20
989800186.4304273
 10
4999877.022428915
 20
989800186.4248561
 10
4999876.997429026
 20
989800186.4168561
 10
4999876.973143194
 20
989800186.4068557
 10
4999876.950000417
 20
989800186.3948561
 10
4999876.92785746
 20
989800186.3807127
 10
4999876.907143313
 20
989800186.3648556
 10
4999876.887857465
 20
989800186.3471415
 10
4999876.870143305
 20
989800186.3278556
 10
4999876.854286084
 20
989800186.3071415
 10
4999876.840143265
 20
989800186.2849984
 10
4999876.828143319
 20
989800186.2618556
 10
4999876.81814319
 20
989800186.2375696
 10
4999876.810143226
 20
989800186.2125699
 10
4999876.804571895
 20
989800186.1871414
 10
4999876.801143265
 20
989800186.1611415
 10
4999876.800000389
 20
989800186.1349987
  0
LWPOLYLINE
  5
AA9
330
1E
100
AcDbEntity
  8
0
  6
C6CONTINUOUS
 62
     7
100
AcDbPolyline
 90
       19
 70
     0
 43
0.0
 10
4999869.500000413
 20
989800176.4349988
 10
4999869.526143348
 20
989800176.4361415
 10
4999869.552143237
 20
989800176.4395703
 10
4999869.577571941
 20
989800176.4451414
 10
4999869.602571832
 20
989800176.4531416
 10
4999869.626714777
 20
989800176.4631416
 10
4999869.65000044
 20
989800176.4751418
 10
4999869.672143224
 20
989800176.4892844
 10
4999869.692714661
 20
989800176.5051416
 10
4999869.71214322
 20
989800176.522856
 10
4999869.729714668
 20
989800176.5421415
 10
4999869.745714768
 20
989800176.562856
 10
4999869.759714707
 20
989800176.5849988
 10
4999869.771857537
 20
989800176.6081417
 10
4999869.781857491
 20
989800176.6324274
 10
4999869.789714749
 20
989800176.6574273
 10
4999869.79542896
 20
989800176.6828556
 10
4999869.798857588
 20
989800176.7088556
 10
4999869.800000467
 20
989800176.734999
  0
LINE
  5
ABE
330
1E
100
AcDbEntity
  8
0
  6
C6CONTINUOUS
 62
     7
100
AcDbLine
 10
4999839.800000645
 20
989800176.4349988
 30
0.0
 11
4999869.500000412
 21
989800176.4349988
 31
0.0
  0
LWPOLYLINE
  5
ABF
330
1E
100
AcDbEntity
  8
0
  6
C6CONTINUOUS
 62
     7
100
AcDbPolyline
 90
       37
 70
     0
 43
0.0
 10
4999839.800000645
 20
989800176.4349988
 10
4999839.712857803
 20
989800176.4311416
 10
4999839.626429197
 20
989800176.4198561
 10
4999839.541143464
 20
989800176.400856
 10
4999839.458000606
 20
989800176.3747133
 10
4999839.377429262
 20
989800176.3412844
 10
4999839.300000615
 20
989800176.300999
 10
4999839.226429239
 20
989800176.2541415
 10
4999839.157143438
 20
989800176.2009988
 10
4999839.092857786
 20
989800176.1421415
 10
4999839.034000583
 20
989800176.077856
 10
4999838.980857764
 20
989800176.0085699
 10
4999838.93400068
 20
989800175.9349988
 10
4999838.893714922
 20
989800175.8575702
 10
4999838.860286253
 20
989800175.7769989
 10
4999838.834143486
 20
989800175.693856
 10
4999838.815143399
 20
989800175.6085699
 10
4999838.803857685
 20
989800175.5221416
 10
4999838.800000583
 20
989800175.4349989
 10
4999838.803857685
 20
989800175.3478556
 10
4999838.815143399
 20
989800175.2614273
 10
4999838.834143486
 20
989800175.1761418
 10
4999838.860286253
 20
989800175.092999
 10
4999838.893714922
 20
989800175.0124272
 10
4999838.93400068
 20
989800174.934999
 10
4999838.980857764
 20
989800174.8614273
 10
4999839.034000583
 20
989800174.7921416
 10
4999839.092857786
 20
989800174.7278559
 10
4999839.157143438
 20
989800174.668999
 10
4999839.226429239
 20
989800174.6158561
 10
4999839.300000615
 20
989800174.5689988
 10
4999839.377429262
 20
989800174.528713
 10
4999839.458000606
 20
989800174.4952843
 10
4999839.541143464
 20
989800174.4691416
 10
4999839.626429197
 20
989800174.4501415
 10
4999839.712857803
 20
989800174.4388556
 10
4999839.800000645
 20
989800174.4349988
  0
LINE
  5
AE6
330
1E
100
AcDbEntity
  8
0
  6
C6CONTINUOUS
 62
     7
100
AcDbLine
 10
4999869.800000467
 20
989800186.5349987
 30
0.0
 11
4999869.800000467
 21
989800176.7349988
 31
0.0
  0
LINE
  5
AE7
330
1E
100
AcDbEntity
  8
0
  6
C6CONTINUOUS
 62
     7
100
AcDbLine
 10
4999927.800000151
 20
989800184.8349988
 30
0.0
 11
4999932.800000122
 21
989800184.8349988
 31
0.0
  0
LINE
  5
AE8
330
1E
100
AcDbEntity
  8
0
  6
C6CONTINUOUS
 62
     7
100
AcDbLine
 10
4999931.600000079
 20
989800187.3349986
 30
0.0
 11
4999929.800000105
 21
989800187.3349986
 31
0.0
  0
LINE
  5
AE9
330
1E
100
AcDbEntity
  8
0
  6
C6CONTINUOUS
 62
     7
100
AcDbLine
 10
4999931.600000079
 20
989800188.3349989
 30
0.0
 11
4999933.800000014
 21
989800188.3349989
 31
0.0
  0
LINE
  5
AEA
330
1E
100
AcDbEntity
  8
0
  6
C6CONTINUOUS
 62
     7
100
AcDbLine
 10
4999931.600000079
 20
989800187.3349986
 30
0.0
 11
4999931.600000079
 21
989800188.3349989
 31
0.0
  0
LINE
  5
AEB
330
1E
100
AcDbEntity
  8
0
  6
C6CONTINUOUS
 62
     7
100
AcDbLine
 10
4999933.800000014
 20
989800185.8349989
 30
0.0
 11
4999933.800000014
 21
989800188.3349989
 31
0.0
  0
LWPOLYLINE
  5
AEC
330
1E
100
AcDbEntity
  8
0
  6
C6CONTINUOUS
 62
     7
100
AcDbPolyline
 90
        8
 70
     0
 43
0.0
 10
4999926.334857193
 20
989800185.5241416
 10
4999926.343285803
 20
989800185.5171415
 10
4999926.559571473
 20
989800185.3511415
 10
4999926.78942861
 20
989800185.204713
 10
4999927.031285865
 20
989800185.0788556
 10
4999927.283142906
 20
989800184.9745702
 10
4999927.543142963
 20
989800184.8925702
 10
4999927.798571514
 20
989800184.8354272
  0
LWPOLYLINE
  5
AF6
330
1E
100
AcDbEntity
  8
0
  6
C6CONTINUOUS
 62
     7
100
AcDbPolyline
 90
       10
 70
     0
 43
0.0
 10
4999925.512000094
 20
989800186.3471415
 10
4999925.492714415
 20
989800186.3648556
 10
4999925.472000096
 20
989800186.3807127
 10
4999925.450000024
 20
989800186.3948561
 10
4999925.42671436
 20
989800186.4068557
 10
4999925.402571585
 20
989800186.4168561
 10
4999925.377571525
 20
989800186.4248561
 10
4999925.35200011
 20
989800186.4304273
 10
4999925.326000053
 20
989800186.4338556
 10
4999925.300000167
 20
989800186.4349989
  0
LINE
  5
B02
330
1E
100
AcDbEntity
  8
0
  6
C6CONTINUOUS
 62
     7
100
AcDbLine
 10
4999925.512000092
 20
989800186.3469987
 30
0.0
 11
4999926.336000071
 21
989800185.5229988
 31
0.0
  0
LINE
  5
B03
330
1E
100
AcDbEntity
  8
0
  6
C6CONTINUOUS
 62
     7
100
AcDbLine
 10
4999877.100000442
 20
989800217.9349983
 30
0.0
 11
4999899.000000202
 21
989800217.9349983
 31
0.0
  0
LWPOLYLINE
  5
B04
330
1E
100
AcDbEntity
  8
0
  6
C6CONTINUOUS
 62
     7
100
AcDbPolyline
 90
       19
 70
     0
 43
0.0
 10
4999877.100000443
 20
989800227.4349984
 10
4999877.073857505
 20
989800227.4338557
 10
4999877.047857449
 20
989800227.4304273
 10
4999877.022428915
 20
989800227.4248554
 10
4999876.997429026
 20
989800227.4168556
 10
4999876.973143194
 20
989800227.4068558
 10
4999876.950000417
 20
989800227.3948556
 10
4999876.92785746
 20
989800227.3807128
 10
4999876.907143313
 20
989800227.3648556
 10
4999876.887857465
 20
989800227.3471412
 10
4999876.870143305
 20
989800227.3278557
 10
4999876.854286084
 20
989800227.3071412
 10
4999876.840143265
 20
989800227.2849986
 10
4999876.828143319
 20
989800227.2618557
 10
4999876.81814319
 20
989800227.2375697
 10
4999876.810143226
 20
989800227.2125699
 10
4999876.804571895
 20
989800227.1871414
 10
4999876.801143265
 20
989800227.1611414
 10
4999876.800000389
 20
989800227.1349987
  0
LWPOLYLINE
  5
B19
330
1E
100
AcDbEntity
  8
0
  6
C6CONTINUOUS
 62
     7
100
AcDbPolyline
 90
       19
 70
     0
 43
0.0
 10
4999876.800000389
 20
989800218.2349983
 10
4999876.801143265
 20
989800218.2088561
 10
4999876.804571895
 20
989800218.1828555
 10
4999876.810143226
 20
989800218.157427
 10
4999876.81814319
 20
989800218.1324272
 10
4999876.828143319
 20
989800218.1081414
 10
4999876.840143265
 20
989800218.0849985
 10
4999876.854286084
 20
989800218.0628557
 10
4999876.870143305
 20
989800218.0421414
 10
4999876.887857465
 20
989800218.0228557
 10
4999876.907143313
 20
989800218.0051415
 10
4999876.92785746
 20
989800217.9892843
 10
4999876.950000417
 20
989800217.9751411
 10
4999876.973143194
 20
989800217.9631415
 10
4999876.997429026
 20
989800217.9531415
 10
4999877.022428915
 20
989800217.9451415
 10
4999877.047857449
 20
989800217.93957
 10
4999877.073857505
 20
989800217.9361414
 10
4999877.100000443
 20
989800217.9349983
  0
LINE
  5
B2E
330
1E
100
AcDbEntity
  8
0
  6
C6CONTINUOUS
 62
     7
100
AcDbLine
 10
4999877.100000442
 20
989800227.4349986
 30
0.0
 11
4999899.000000202
 21
989800227.4349986
 31
0.0
  0
LWPOLYLINE
  5
B2F
330
1E
100
AcDbEntity
  8
0
  6
C6CONTINUOUS
 62
     7
100
AcDbPolyline
 90
       19
 70
     0
 43
0.0
 10
4999899.300000254
 20
989800227.1349987
 10
4999899.298857378
 20
989800227.1611414
 10
4999899.29542875
 20
989800227.1871414
 10
4999899.289714536
 20
989800227.2125699
 10
4999899.281857451
 20
989800227.2375697
 10
4999899.271857325
 20
989800227.2618557
 10
4999899.259714497
 20
989800227.2849986
 10
4999899.245714558
 20
989800227.3071412
 10
4999899.229714457
 20
989800227.3278557
 10
4999899.212143179
 20
989800227.3471412
 10
4999899.192714618
 20
989800227.3648556
 10
4999899.172143184
 20
989800227.3807128
 10
4999899.150000229
 20
989800227.3948556
 10
4999899.126714566
 20
989800227.4068558
 10
4999899.102571617
 20
989800227.4168556
 10
4999899.077571729
 20
989800227.4248554
 10
4999899.052143196
 20
989800227.4304273
 10
4999899.026143138
 20
989800227.4338557
 10
4999899.000000201
 20
989800227.4349984
  0
LWPOLYLINE
  5
B44
330
1E
100
AcDbEntity
  8
0
  6
C6CONTINUOUS
 62
     7
100
AcDbPolyline
 90
       19
 70
     0
 43
0.0
 10
4999899.000000201
 20
989800217.9349983
 10
4999899.026143138
 20
989800217.9361414
 10
4999899.052143196
 20
989800217.93957
 10
4999899.077571729
 20
989800217.9451415
 10
4999899.102571617
 20
989800217.9531415
 10
4999899.126714566
 20
989800217.9631415
 10
4999899.150000229
 20
989800217.9751411
 10
4999899.172143184
 20
989800217.9892843
 10
4999899.192714618
 20
989800218.0051415
 10
4999899.212143179
 20
989800218.0228557
 10
4999899.229714457
 20
989800218.0421414
 10
4999899.245714558
 20
989800218.0628557
 10
4999899.259714497
 20
989800218.0849985
 10
4999899.271857325
 20
989800218.1081414
 10
4999899.281857451
 20
989800218.1324272
 10
4999899.289714536
 20
989800218.157427
 10
4999899.29542875
 20
989800218.1828555
 10
4999899.298857378
 20
989800218.2088561
 10
4999899.300000254
 20
989800218.2349983
  0
LINE
  5
B59
330
1E
100
AcDbEntity
  8
0
  6
C6CONTINUOUS
 62
     7
100
AcDbLine
 10
4999899.300000254
 20
989800218.2349983
 30
0.0
 11
4999899.300000254
 21
989800227.1349987
 31
0.0
  0
LINE
  5
B5A
330
1E
100
AcDbEntity
  8
0
  6
C6CONTINUOUS
 62
     7
100
AcDbLine
 10
4999876.800000389
 20
989800227.1349987
 30
0.0
 11
4999876.800000389
 21
989800218.2349983
 31
0.0
  0
LINE
  5
B5B
330
1E
100
AcDbEntity
  8
0
  6
C6CONTINUOUS
 62
     7
100
AcDbLine
 10
4999902.300000271
 20
989800227.0639985
 30
0.0
 11
4999902.300000271
 21
989800218.1639984
 31
0.0
  0
LWPOLYLINE
  5
B5C
330
1E
100
AcDbEntity
  8
0
  6
C6CONTINUOUS
 62
     7
100
AcDbPolyline
 90
       19
 70
     0
 43
0.0
 10
4999902.600000153
 20
989800227.3639987
 10
4999902.573857387
 20
989800227.3628556
 10
4999902.547857328
 20
989800227.359427
 10
4999902.522428794
 20
989800227.3538557
 10
4999902.497428734
 20
989800227.3458557
 10
4999902.473143077
 20
989800227.3358557
 10
4999902.450000297
 20
989800227.3238557
 10
4999902.427857342
 20
989800227.3097127
 10
4999902.407143023
 20
989800227.2938557
 10
4999902.387857344
 20
989800227.2761411
 10
4999902.370143017
 20
989800227.2568556
 10
4999902.354285967
 20
989800227.2361411
 10
4999902.340143147
 20
989800227.2139985
 10
4999902.328143028
 20
989800227.1908556
 10
4999902.318143074
 20
989800227.1665699
 10
4999902.310143109
 20
989800227.14157
 10
4999902.304571606
 20
989800227.1161411
 10
4999902.301143147
 20
989800227.0901416
 10
4999902.300000271
 20
989800227.0639985
  0
LWPOLYLINE
  5
B71
330
1E
100
AcDbEntity
  8
0
  6
C6CONTINUOUS
 62
     7
100
AcDbPolyline
 90
       19
 70
     0
 43
0.0
 10
4999902.300000271
 20
989800218.1639986
 10
4999902.301143147
 20
989800218.1378556
 10
4999902.304571606
 20
989800218.1118556
 10
4999902.310143109
 20
989800218.0864272
 10
4999902.318143074
 20
989800218.0614273
 10
4999902.328143028
 20
989800218.0371415
 10
4999902.340143147
 20
989800218.0139984
 10
4999902.354285967
 20
989800217.9918556
 10
4999902.370143017
 20
989800217.9711411
 10
4999902.387857344
 20
989800217.9518556
 10
4999902.407143023
 20
989800217.9341414
 10
4999902.427857342
 20
989800217.9182844
 10
4999902.450000297
 20
989800217.9041414
 10
4999902.473143077
 20
989800217.8921412
 10
4999902.497428734
 20
989800217.8821414
 10
4999902.522428794
 20
989800217.8741414
 10
4999902.547857328
 20
989800217.8685699
 10
4999902.573857387
 20
989800217.8651411
 10
4999902.600000153
 20
989800217.8639986
  0
LINE
  5
B86
330
1E
100
AcDbEntity
  8
0
  6
C6CONTINUOUS
 62
     7
100
AcDbLine
 10
4999902.600000153
 20
989800227.3639983
 30
0.0
 11
4999927.000000068
 21
989800227.3639983
 31
0.0
  0
LINE
  5
B87
330
1E
100
AcDbEntity
  8
0
  6
C6CONTINUOUS
 62
     7
100
AcDbLine
 10
4999902.600000153
 20
989800217.8639986
 30
0.0
 11
4999927.000000068
 21
989800217.8639986
 31
0.0
  0
LWPOLYLINE
  5
B88
330
1E
100
AcDbEntity
  8
0
  6
C6CONTINUOUS
 62
     7
100
AcDbPolyline
 90
       19
 70
     0
 43
0.0
 10
4999927.30000012
 20
989800227.0639985
 10
4999927.298857243
 20
989800227.0901416
 10
4999927.295428615
 20
989800227.1161411
 10
4999927.289714404
 20
989800227.14157
 10
4999927.281857146
 20
989800227.1665699
 10
4999927.271857191
 20
989800227.1908556
 10
4999927.259714363
 20
989800227.2139985
 10
4999927.245714424
 20
989800227.2361411
 10
4999927.229714325
 20
989800227.2568556
 10
4999927.212000163
 20
989800227.2761411
 10
4999927.192714315
 20
989800227.2938557
 10
4999927.172000168
 20
989800227.3097127
 10
4999927.150000093
 20
989800227.3238557
 10
4999927.126714432
 20
989800227.3358557
 10
4999927.102571486
 20
989800227.3458557
 10
4999927.077571594
 20
989800227.3538557
 10
4999927.05200001
 20
989800227.359427
 10
4999927.026000125
 20
989800227.3628556
 10
4999927.000000067
 20
989800227.3639987
  0
LWPOLYLINE
  5
B9D
330
1E
100
AcDbEntity
  8
0
  6
C6CONTINUOUS
 62
     7
100
AcDbPolyline
 90
       19
 70
     0
 43
0.0
 10
4999927.000000067
 20
989800217.8639986
 10
4999927.026000125
 20
989800217.8651411
 10
4999927.05200001
 20
989800217.8685699
 10
4999927.077571594
 20
989800217.8741414
 10
4999927.102571486
 20
989800217.8821414
 10
4999927.126714432
 20
989800217.8921412
 10
4999927.150000093
 20
989800217.9041414
 10
4999927.172000168
 20
989800217.9182844
 10
4999927.192714315
 20
989800217.9341414
 10
4999927.212000163
 20
989800217.9518556
 10
4999927.229714325
 20
989800217.9711411
 10
4999927.245714424
 20
989800217.9918556
 10
4999927.259714363
 20
989800218.0139984
 10
4999927.271857191
 20
989800218.0371415
 10
4999927.281857146
 20
989800218.0614273
 10
4999927.289714404
 20
989800218.0864272
 10
4999927.295428615
 20
989800218.1118556
 10
4999927.298857243
 20
989800218.1378556
 10
4999927.30000012
 20
989800218.1639986
  0
LINE
  5
BB2
330
1E
100
AcDbEntity
  8
0
  6
C6CONTINUOUS
 62
     7
100
AcDbLine
 10
4999927.300000121
 20
989800218.1639984
 30
0.0
 11
4999927.300000121
 21
989800227.0639985
 31
0.0
  0
LINE
  5
BB3
330
1E
100
AcDbEntity
  8
0
  6
C6CONTINUOUS
 62
     7
100
AcDbLine
 10
4999902.300000271
 20
989800204.4139985
 30
0.0
 11
4999902.300000271
 21
989800213.3139986
 31
0.0
  0
LINE
  5
BB4
330
1E
100
AcDbEntity
  8
0
  6
C6CONTINUOUS
 62
     7
100
AcDbLine
 10
4999927.300000121
 20
989800213.3139986
 30
0.0
 11
4999927.300000121
 21
989800204.4139985
 31
0.0
  0
LWPOLYLINE
  5
BB5
330
1E
100
AcDbEntity
  8
0
  6
C6CONTINUOUS
 62
     7
100
AcDbPolyline
 90
       19
 70
     0
 43
0.0
 10
4999902.300000271
 20
989800190.6639986
 10
4999902.301143147
 20
989800190.637856
 10
4999902.304571606
 20
989800190.6118556
 10
4999902.310143109
 20
989800190.5864273
 10
4999902.318143074
 20
989800190.5614274
 10
4999902.328143028
 20
989800190.5371415
 10
4999902.340143147
 20
989800190.5139986
 10
4999902.354285967
 20
989800190.4918556
 10
4999902.370143017
 20
989800190.4711415
 10
4999902.387857344
 20
989800190.4518556
 10
4999902.407143023
 20
989800190.4341416
 10
4999902.427857342
 20
989800190.4182844
 10
4999902.450000297
 20
989800190.4041414
 10
4999902.473143077
 20
989800190.3921416
 10
4999902.497428734
 20
989800190.3821416
 10
4999902.522428794
 20
989800190.3741416
 10
4999902.547857328
 20
989800190.3685699
 10
4999902.573857387
 20
989800190.3651412
 10
4999902.600000153
 20
989800190.3639988
  0
LWPOLYLINE
  5
BCA
330
1E
100
AcDbEntity
  8
0
  6
C6CONTINUOUS
 62
     7
100
AcDbPolyline
 90
       19
 70
     0
 43
0.0
 10
4999902.600000153
 20
989800199.8639987
 10
4999902.573857387
 20
989800199.862856
 10
4999902.547857328
 20
989800199.8594272
 10
4999902.522428794
 20
989800199.853856
 10
4999902.497428734
 20
989800199.8458557
 10
4999902.473143077
 20
989800199.8358557
 10
4999902.450000297
 20
989800199.823856
 10
4999902.427857342
 20
989800199.809713
 10
4999902.407143023
 20
989800199.793856
 10
4999902.387857344
 20
989800199.7761411
 10
4999902.370143017
 20
989800199.7568556
 10
4999902.354285967
 20
989800199.7361415
 10
4999902.340143147
 20
989800199.7139987
 10
4999902.328143028
 20
989800199.6908556
 10
4999902.318143074
 20
989800199.66657
 10
4999902.310143109
 20
989800199.6415699
 10
4999902.304571606
 20
989800199.6161415
 10
4999902.301143147
 20
989800199.5901417
 10
4999902.300000271
 20
989800199.5639988
  0
LWPOLYLINE
  5
BDF
330
1E
100
AcDbEntity
  8
0
  6
C6CONTINUOUS
 62
     7
100
AcDbPolyline
 90
       19
 70
     0
 43
0.0
 10
4999902.300000271
 20
989800204.4139985
 10
4999902.301143147
 20
989800204.3878555
 10
4999902.304571606
 20
989800204.3618555
 10
4999902.310143109
 20
989800204.3364273
 10
4999902.318143074
 20
989800204.3114273
 10
4999902.328143028
 20
989800204.2871416
 10
4999902.340143147
 20
989800204.2639983
 10
4999902.354285967
 20
989800204.2418561
 10
4999902.370143017
 20
989800204.2211416
 10
4999902.387857344
 20
989800204.2018561
 10
4999902.407143023
 20
989800204.1841412
 10
4999902.427857342
 20
989800204.1682843
 10
4999902.450000297
 20
989800204.1541412
 10
4999902.473143077
 20
989800204.1421415
 10
4999902.497428734
 20
989800204.1321415
 10
4999902.522428794
 20
989800204.1241415
 10
4999902.547857328
 20
989800204.11857
 10
4999902.573857387
 20
989800204.1151414
 10
4999902.600000153
 20
989800204.1139987
  0
LINE
  5
BF4
330
1E
100
AcDbEntity
  8
0
  6
C6CONTINUOUS
 62
     7
100
AcDbLine
 10
4999902.600000153
 20
989800190.3639988
 30
0.0
 11
4999927.000000068
 21
989800190.3639988
 31
0.0
  0
LINE
  5
BF5
330
1E
100
AcDbEntity
  8
0
  6
C6CONTINUOUS
 62
     7
100
AcDbLine
 10
4999902.600000153
 20
989800199.8639987
 30
0.0
 11
4999927.000000068
 21
989800199.8639987
 31
0.0
  0
LINE
  5
BF6
330
1E
100
AcDbEntity
  8
0
  6
C6CONTINUOUS
 62
     7
100
AcDbLine
 10
4999927.000000068
 20
989800204.1139987
 30
0.0
 11
4999902.600000153
 21
989800204.1139987
 31
0.0
  0
LWPOLYLINE
  5
BF7
330
1E
100
AcDbEntity
  8
0
  6
C6CONTINUOUS
 62
     7
100
AcDbPolyline
 90
       19
 70
     0
 43
0.0
 10
4999927.000000067
 20
989800190.3639988
 10
4999927.026000125
 20
989800190.3651412
 10
4999927.05200001
 20
989800190.3685699
 10
4999927.077571594
 20
989800190.3741416
 10
4999927.102571486
 20
989800190.3821416
 10
4999927.126714432
 20
989800190.3921416
 10
4999927.150000093
 20
989800190.4041414
 10
4999927.172000168
 20
989800190.4182844
 10
4999927.192714315
 20
989800190.4341416
 10
4999927.212000163
 20
989800190.4518556
 10
4999927.229714325
 20
989800190.4711415
 10
4999927.245714424
 20
989800190.4918556
 10
4999927.259714363
 20
989800190.5139986
 10
4999927.271857191
 20
989800190.5371415
 10
4999927.281857146
 20
989800190.5614274
 10
4999927.289714404
 20
989800190.5864273
 10
4999927.295428615
 20
989800190.6118556
 10
4999927.298857243
 20
989800190.637856
 10
4999927.30000012
 20
989800190.6639986
  0
LWPOLYLINE
  5
C0C
330
1E
100
AcDbEntity
  8
0
  6
C6CONTINUOUS
 62
     7
100
AcDbPolyline
 90
       19
 70
     0
 43
0.0
 10
4999927.30000012
 20
989800199.5639988
 10
4999927.298857243
 20
989800199.5901417
 10
4999927.295428615
 20
989800199.6161415
 10
4999927.289714404
 20
989800199.6415699
 10
4999927.281857146
 20
989800199.66657
 10
4999927.271857191
 20
989800199.6908556
 10
4999927.259714363
 20
989800199.7139987
 10
4999927.245714424
 20
989800199.7361415
 10
4999927.229714325
 20
989800199.7568556
 10
4999927.212000163
 20
989800199.7761411
 10
4999927.192714315
 20
989800199.793856
 10
4999927.172000168
 20
989800199.809713
 10
4999927.150000093
 20
989800199.823856
 10
4999927.126714432
 20
989800199.8358557
 10
4999927.102571486
 20
989800199.8458557
 10
4999927.077571594
 20
989800199.853856
 10
4999927.05200001
 20
989800199.8594272
 10
4999927.026000125
 20
989800199.862856
 10
4999927.00042871
 20
989800199.8639987
  0
LWPOLYLINE
  5
C21
330
1E
100
AcDbEntity
  8
0
  6
C6CONTINUOUS
 62
     7
100
AcDbPolyline
 90
       19
 70
     0
 43
0.0
 10
4999927.000000067
 20
989800204.1139987
 10
4999927.026000125
 20
989800204.1151414
 10
4999927.05200001
 20
989800204.11857
 10
4999927.077571594
 20
989800204.1241415
 10
4999927.102571486
 20
989800204.1321415
 10
4999927.126714432
 20
989800204.1421415
 10
4999927.150000093
 20
989800204.1541412
 10
4999927.172000168
 20
989800204.1682843
 10
4999927.192714315
 20
989800204.1841412
 10
4999927.212000163
 20
989800204.2018561
 10
4999927.229714325
 20
989800204.2211416
 10
4999927.245714424
 20
989800204.2418561
 10
4999927.259714363
 20
989800204.2639983
 10
4999927.271857191
 20
989800204.2871416
 10
4999927.281857146
 20
989800204.3114273
 10
4999927.289714404
 20
989800204.3364273
 10
4999927.295428615
 20
989800204.3618555
 10
4999927.298857243
 20
989800204.3878555
 10
4999927.30000012
 20
989800204.4139985
  0
LINE
  5
C36
330
1E
100
AcDbEntity
  8
0
  6
C6CONTINUOUS
 62
     7
100
AcDbLine
 10
4999927.300000121
 20
989800199.5639988
 30
0.0
 11
4999927.300000121
 21
989800190.6639986
 31
0.0
  0
LINE
  5
C37
330
1E
100
AcDbEntity
  8
0
  6
C6CONTINUOUS
 62
     7
100
AcDbLine
 10
4999902.300000271
 20
989800190.6639986
 30
0.0
 11
4999902.300000271
 21
989800199.5639988
 31
0.0
  0
LWPOLYLINE
  5
C38
330
1E
100
AcDbEntity
  8
0
  6
C6CONTINUOUS
 62
     7
100
AcDbPolyline
 90
       19
 70
     0
 43
0.0
 10
4999902.600000153
 20
989800213.6139986
 10
4999902.573857387
 20
989800213.6128557
 10
4999902.547857328
 20
989800213.6094273
 10
4999902.522428794
 20
989800213.6038556
 10
4999902.497428734
 20
989800213.5958558
 10
4999902.473143077
 20
989800213.5858558
 10
4999902.450000297
 20
989800213.5738556
 10
4999902.427857342
 20
989800213.5597126
 10
4999902.407143023
 20
989800213.5438556
 10
4999902.387857344
 20
989800213.5261414
 10
4999902.370143017
 20
989800213.5068555
 10
4999902.354285967
 20
989800213.4861414
 10
4999902.340143147
 20
989800213.4639986
 10
4999902.328143028
 20
989800213.4408557
 10
4999902.318143074
 20
989800213.4165695
 10
4999902.310143109
 20
989800213.3915699
 10
4999902.304571606
 20
989800213.3661412
 10
4999902.301143147
 20
989800213.3401416
 10
4999902.300000271
 20
989800213.3139984
  0
LINE
  5
C4D
330
1E
100
AcDbEntity
  8
0
  6
C6CONTINUOUS
 62
     7
100
AcDbLine
 10
4999902.600000153
 20
989800213.6139986
 30
0.0
 11
4999927.000000068
 21
989800213.6139986
 31
0.0
  0
LWPOLYLINE
  5
C4E
330
1E
100
AcDbEntity
  8
0
  6
C6CONTINUOUS
 62
     7
100
AcDbPolyline
 90
       19
 70
     0
 43
0.0
 10
4999927.30000012
 20
989800213.3139984
 10
4999927.298857243
 20
989800213.3401416
 10
4999927.295428615
 20
989800213.3661412
 10
4999927.289714404
 20
989800213.3915699
 10
4999927.281857146
 20
989800213.4165695
 10
4999927.271857191
 20
989800213.4408557
 10
4999927.259714363
 20
989800213.4639986
 10
4999927.245714424
 20
989800213.4861414
 10
4999927.229714325
 20
989800213.5068555
 10
4999927.212000163
 20
989800213.5261414
 10
4999927.192714315
 20
989800213.5438556
 10
4999927.172000168
 20
989800213.5597126
 10
4999927.150000093
 20
989800213.5738556
 10
4999927.126714432
 20
989800213.5858558
 10
4999927.102571486
 20
989800213.5958558
 10
4999927.077571594
 20
989800213.6038556
 10
4999927.05200001
 20
989800213.6094273
 10
4999927.026000125
 20
989800213.6128557
 10
4999927.000000067
 20
989800213.6139986
  0
LINE
  5
C63
330
1E
100
AcDbEntity
  8
0
  6
C6CONTINUOUS
 62
     7
100
AcDbLine
 10
4999909.330000233
 20
989800186.4349989
 30
0.0
 11
4999925.300000167
 21
989800186.4349989
 31
0.0
  0
LWPOLYLINE
  5
C64
330
1E
100
AcDbEntity
  8
0
  6
C6CONTINUOUS
 62
     7
100
AcDbPolyline
 90
       20
 70
     0
 43
0.0
 10
4999909.330857348
 20
989800186.4349989
 10
4999909.330000233
 20
989800186.4349989
 10
4999909.286428727
 20
989800186.4331416
 10
4999909.243142982
 20
989800186.4274272
 10
4999909.200571643
 20
989800186.4179988
 10
4999909.159000128
 20
989800186.4048556
 10
4999909.118714541
 20
989800186.3881416
 10
4999909.080000132
 20
989800186.3679986
 10
4999909.043143006
 20
989800186.3445699
 10
4999909.008571631
 20
989800186.3179986
 10
4999908.976428718
 20
989800186.2885699
 10
4999908.947000204
 20
989800186.2564273
 10
4999908.920428794
 20
989800186.2218556
 10
4999908.897000251
 20
989800186.1849989
 10
4999908.876714407
 20
989800186.1462843
 10
4999908.860143123
 20
989800186.1059988
 10
4999908.847000127
 20
989800186.0644274
 10
4999908.837571696
 20
989800186.021856
 10
4999908.831857311
 20
989800185.9785702
 10
4999908.830000203
 20
989800185.9349989
  0
LWPOLYLINE
  5
C7A
330
1E
100
AcDbEntity
  8
0
  6
C6CONTINUOUS
 62
     7
100
AcDbPolyline
 90
       19
 70
     0
 43
0.0
 10
4999932.800000122
 20
989800184.8349988
 10
4999932.887142962
 20
989800184.8388556
 10
4999932.973571401
 20
989800184.8501417
 10
4999933.058714421
 20
989800184.8691416
 10
4999933.141999991
 20
989800184.8952844
 10
4999933.222571505
 20
989800184.928713
 10
4999933.299999982
 20
989800184.9689986
 10
4999933.373571528
 20
989800185.0158561
 10
4999933.442714278
 20
989800185.0689988
 10
4999933.5070001
 20
989800185.1278561
 10
4999933.566000012
 20
989800185.1921415
 10
4999933.619142832
 20
989800185.2614275
 10
4999933.666000087
 20
989800185.3349988
 10
4999933.706285845
 20
989800185.4124272
 10
4999933.739714343
 20
989800185.4929988
 10
4999933.76585711
 20
989800185.5761416
 10
4999933.784714317
 20
989800185.6614273
 10
4999933.796142912
 20
989800185.7478559
 10
4999933.800000014
 20
989800185.8349989
  0
LWPOLYLINE
  5
C8F
330
1E
100
AcDbEntity
  8
0
  6
C6CONTINUOUS
 62
     7
100
AcDbPolyline
 90
       19
 70
     0
 43
0.0
 10
4999887.110000338
 20
989800186.4349989
 10
4999887.0838574
 20
989800186.4338556
 10
4999887.057857515
 20
989800186.4304273
 10
4999887.032428982
 20
989800186.4248561
 10
4999887.00742892
 20
989800186.4168561
 10
4999886.983143261
 20
989800186.4068557
 10
4999886.960000312
 20
989800186.3948561
 10
4999886.937857527
 20
989800186.3807127
 10
4999886.917143212
 20
989800186.3648556
 10
4999886.897857532
 20
989800186.3471415
 10
4999886.880143201
 20
989800186.3278556
 10
4999886.864285981
 20
989800186.3071415
 10
4999886.850143163
 20
989800186.2849984
 10
4999886.838143214
 20
989800186.2618556
 10
4999886.828143258
 20
989800186.2375696
 10
4999886.820143122
 20
989800186.2125699
 10
4999886.814571793
 20
989800186.1871414
 10
4999886.811143162
 20
989800186.1611415
 10
4999886.810000283
 20
989800186.1349987
  0
LINE
  5
CA4
330
1E
100
AcDbEntity
  8
0
  6
C6CONTINUOUS
 62
     7
100
AcDbLine
 10
4999894.820000228
 20
989800154.934999
 30
0.0
 11
4999894.820000228
 21
989800186.1349987
 31
0.0
  0
LINE
  5
CA5
330
1E
100
AcDbEntity
  8
0
  6
C6CONTINUOUS
 62
     7
100
AcDbLine
 10
4999894.520000346
 20
989800186.4349989
 30
0.0
 11
4999887.110000338
 21
989800186.4349989
 31
0.0
  0
LWPOLYLINE
  5
CA6
330
1E
100
AcDbEntity
  8
0
  6
C6CONTINUOUS
 62
     7
100
AcDbPolyline
 90
       19
 70
     0
 43
0.0
 10
4999894.820000228
 20
989800186.1349987
 10
4999894.818857351
 20
989800186.1611415
 10
4999894.815428892
 20
989800186.1871414
 10
4999894.809714511
 20
989800186.2125699
 10
4999894.801857426
 20
989800186.2375696
 10
4999894.79185747
 20
989800186.2618556
 10
4999894.779714642
 20
989800186.2849984
 10
4999894.765714532
 20
989800186.3071415
 10
4999894.7497146
 20
989800186.3278556
 10
4999894.732143153
 20
989800186.3471415
 10
4999894.712714594
 20
989800186.3648556
 10
4999894.692143157
 20
989800186.3807127
 10
4999894.670000201
 20
989800186.3948561
 10
4999894.646714538
 20
989800186.4068557
 10
4999894.622571765
 20
989800186.4168561
 10
4999894.597571702
 20
989800186.4248561
 10
4999894.572143169
 20
989800186.4304273
 10
4999894.546143113
 20
989800186.4338556
 10
4999894.520000346
 20
989800186.4349989
  0
LINE
  5
CBB
330
1E
100
AcDbEntity
  8
0
  6
C6CONTINUOUS
 62
     7
100
AcDbLine
 10
4999886.810000283
 20
989800154.934999
 30
0.0
 11
4999886.810000283
 21
989800186.1349987
 31
0.0
  0
LINE
  5
CBC
330
1E
100
AcDbEntity
  8
0
  6
C6CONTINUOUS
 62
     7
100
AcDbLine
 10
4999896.820000352
 20
989800154.934999
 30
0.0
 11
4999896.820000352
 21
989800186.1349987
 31
0.0
  0
LINE
  5
CBD
330
1E
100
AcDbEntity
  8
0
  6
C6CONTINUOUS
 62
     7
100
AcDbLine
 10
4999904.830000295
 20
989800154.934999
 30
0.0
 11
4999904.830000295
 21
989800186.1349987
 31
0.0
  0
LINE
  5
CBE
330
1E
100
AcDbEntity
  8
0
  6
C6CONTINUOUS
 62
     7
100
AcDbLine
 10
4999904.530000241
 20
989800186.4349989
 30
0.0
 11
4999897.120000235
 21
989800186.4349989
 31
0.0
  0
LWPOLYLINE
  5
CBF
330
1E
100
AcDbEntity
  8
0
  6
C6CONTINUOUS
 62
     7
100
AcDbPolyline
 90
       19
 70
     0
 43
0.0
 10
4999904.830000295
 20
989800186.1349987
 10
4999904.828857418
 20
989800186.1611415
 10
4999904.82542879
 20
989800186.1871414
 10
4999904.819714576
 20
989800186.2125699
 10
4999904.811857322
 20
989800186.2375696
 10
4999904.801857365
 20
989800186.2618556
 10
4999904.789714538
 20
989800186.2849984
 10
4999904.775714429
 20
989800186.3071415
 10
4999904.759714499
 20
989800186.3278556
 10
4999904.742000167
 20
989800186.3471415
 10
4999904.722714489
 20
989800186.3648556
 10
4999904.702000172
 20
989800186.3807127
 10
4999904.680000268
 20
989800186.3948561
 10
4999904.656714437
 20
989800186.4068557
 10
4999904.63257166
 20
989800186.4168561
 10
4999904.6075716
 20
989800186.4248561
 10
4999904.582000183
 20
989800186.4304273
 10
4999904.556000299
 20
989800186.4338556
 10
4999904.530000241
 20
989800186.4349989
  0
LWPOLYLINE
  5
CD4
330
1E
100
AcDbEntity
  8
0
  6
C6CONTINUOUS
 62
     7
100
AcDbPolyline
 90
       19
 70
     0
 43
0.0
 10
4999897.120000237
 20
989800186.4349989
 10
4999897.093857467
 20
989800186.4338556
 10
4999897.067857411
 20
989800186.4304273
 10
4999897.042428877
 20
989800186.4248561
 10
4999897.017428815
 20
989800186.4168561
 10
4999896.99314316
 20
989800186.4068557
 10
4999896.970000208
 20
989800186.3948561
 10
4999896.947857425
 20
989800186.3807127
 10
4999896.927143106
 20
989800186.3648556
 10
4999896.907857428
 20
989800186.3471415
 10
4999896.890143098
 20
989800186.3278556
 10
4999896.874286048
 20
989800186.3071415
 10
4999896.860143058
 20
989800186.2849984
 10
4999896.848143111
 20
989800186.2618556
 10
4999896.838143155
 20
989800186.2375696
 10
4999896.830143189
 20
989800186.2125699
 10
4999896.824571687
 20
989800186.1871414
 10
4999896.821143059
 20
989800186.1611415
 10
4999896.820000352
 20
989800186.1349987
  0
LINE
  5
CE9
330
1E
100
AcDbEntity
  8
0
  6
C6CONTINUOUS
 62
     7
100
AcDbLine
 10
4999909.330000233
 20
989800231.4349986
 30
0.0
 11
4999925.300000167
 21
989800231.4349986
 31
0.0
  0
LINE
  5
CEA
330
1E
100
AcDbEntity
  8
0
  6
C6CONTINUOUS
 62
     7
100
AcDbLine
 10
4999927.800000151
 20
989800233.0349983
 30
0.0
 11
4999932.800000122
 21
989800233.0349983
 31
0.0
  0
LINE
  5
CEB
330
1E
100
AcDbEntity
  8
0
  6
C6CONTINUOUS
 62
     7
100
AcDbLine
 10
4999933.800000014
 20
989800232.0349984
 30
0.0
 11
4999933.800000014
 21
989800229.5349984
 31
0.0
  0
LWPOLYLINE
  5
CEC
330
1E
100
AcDbEntity
  8
0
  6
C6CONTINUOUS
 62
     7
100
AcDbPolyline
 90
       19
 70
     0
 43
0.0
 10
4999933.800000014
 20
989800232.0349984
 10
4999933.796142912
 20
989800232.1221412
 10
4999933.784714317
 20
989800232.2085698
 10
4999933.76585711
 20
989800232.2938557
 10
4999933.739714343
 20
989800232.3769985
 10
4999933.706285845
 20
989800232.4575699
 10
4999933.666000087
 20
989800232.5349985
 10
4999933.619142832
 20
989800232.6085695
 10
4999933.566000012
 20
989800232.6778556
 10
4999933.5070001
 20
989800232.7421412
 10
4999933.442714278
 20
989800232.8009985
 10
4999933.373571528
 20
989800232.8541412
 10
4999933.299999982
 20
989800232.9009985
 10
4999933.222571505
 20
989800232.941284
 10
4999933.141999991
 20
989800232.9747127
 10
4999933.058714421
 20
989800233.0008557
 10
4999932.973571401
 20
989800233.0198556
 10
4999932.887142962
 20
989800233.0311411
 10
4999932.801714352
 20
989800233.0349983
  0
LINE
  5
D01
330
1E
100
AcDbEntity
  8
0
  6
C6CONTINUOUS
 62
     7
100
AcDbLine
 10
4999931.600000079
 20
989800230.5349985
 30
0.0
 11
4999931.600000079
 21
989800229.5349984
 31
0.0
  0
LINE
  5
D02
330
1E
100
AcDbEntity
  8
0
  6
C6CONTINUOUS
 62
     7
100
AcDbLine
 10
4999931.600000079
 20
989800229.5349984
 30
0.0
 11
4999933.800000014
 21
989800229.5349984
 31
0.0
  0
LINE
  5
D03
330
1E
100
AcDbEntity
  8
0
  6
C6CONTINUOUS
 62
     7
100
AcDbLine
 10
4999931.600000079
 20
989800229.5349984
 30
0.0
 11
4999933.800000014
 21
989800229.5349984
 31
0.0
  0
LINE
  5
D04
330
1E
100
AcDbEntity
  8
0
  6
C6CONTINUOUS
 62
     7
100
AcDbLine
 10
4999931.600000079
 20
989800230.5349985
 30
0.0
 11
4999931.600000079
 21
989800229.5349984
 31
0.0
  0
LINE
  5
D05
330
1E
100
AcDbEntity
  8
0
  6
C6CONTINUOUS
 62
     7
100
AcDbLine
 10
4999931.600000079
 20
989800230.5349985
 30
0.0
 11
4999929.800000105
 21
989800230.5349985
 31
0.0
  0
LINE
  5
D06
330
1E
100
AcDbEntity
  8
0
  6
C6CONTINUOUS
 62
     7
100
AcDbLine
 10
4999925.512000092
 20
989800231.5229984
 30
0.0
 11
4999926.336000071
 21
989800232.3469984
 31
0.0
  0
LWPOLYLINE
  5
D07
330
1E
100
AcDbEntity
  8
0
  6
C6CONTINUOUS
 62
     7
100
AcDbPolyline
 90
       11
 70
     0
 43
0.0
 10
4999925.299428642
 20
989800231.4349986
 10
4999925.300000167
 20
989800231.4349986
 10
4999925.326000053
 20
989800231.4361413
 10
4999925.35200011
 20
989800231.43957
 10
4999925.377571525
 20
989800231.4451414
 10
4999925.402571585
 20
989800231.4531412
 10
4999925.42671436
 20
989800231.4631414
 10
4999925.450000024
 20
989800231.4751412
 10
4999925.472000096
 20
989800231.4892842
 10
4999925.492714415
 20
989800231.5051416
 10
4999925.512000094
 20
989800231.5228556
  0
LWPOLYLINE
  5
D14
330
1E
100
AcDbEntity
  8
0
  6
C6CONTINUOUS
 62
     7
100
AcDbPolyline
 90
        8
 70
     0
 43
0.0
 10
4999927.804000133
 20
989800233.03557
 10
4999927.543142963
 20
989800232.9775696
 10
4999927.283142906
 20
989800232.8955699
 10
4999927.031285865
 20
989800232.7911417
 10
4999926.78942861
 20
989800232.6652839
 10
4999926.559571473
 20
989800232.5188556
 10
4999926.343285803
 20
989800232.3528556
 10
4999926.339000058
 20
989800232.3494267
  0
LINE
  5
D1E
330
1E
100
AcDbEntity
  8
0
  6
C6CONTINUOUS
 62
     7
100
AcDbLine
 10
4999909.130000255
 20
989800251.4349984
 30
0.0
 11
4999932.800000122
 21
989800251.4349984
 31
0.0
  0
LINE
  5
D1F
330
1E
100
AcDbEntity
  8
0
  6
C6CONTINUOUS
 62
     7
100
AcDbLine
 10
4999909.130000255
 20
989800253.4349982
 30
0.0
 11
4999932.800000122
 21
989800253.4349982
 31
0.0
  0
LINE
  5
D20
330
1E
100
AcDbEntity
  8
0
  6
C6CONTINUOUS
 62
     7
100
AcDbLine
 10
4999909.130000255
 20
989800261.4349982
 30
0.0
 11
4999933.299999982
 21
989800261.4349982
 31
0.0
  0
LINE
  5
D21
330
1E
100
AcDbEntity
  8
0
  6
C6CONTINUOUS
 62
     7
100
AcDbLine
 10
4999909.130000255
 20
989800241.4349983
 30
0.0
 11
4999932.800000122
 21
989800241.4349983
 31
0.0
  0
LINE
  5
D22
330
1E
100
AcDbEntity
  8
0
  6
C6CONTINUOUS
 62
     7
100
AcDbLine
 10
4999932.800000122
 20
989800243.4349983
 30
0.0
 11
4999909.130000255
 21
989800243.4349983
 31
0.0
  0
LWPOLYLINE
  5
D23
330
1E
100
AcDbEntity
  8
0
  6
C6CONTINUOUS
 62
     7
100
AcDbPolyline
 90
       37
 70
     0
 43
0.0
 10
4999932.800000122
 20
989800251.4349984
 10
4999932.887142962
 20
989800251.4388554
 10
4999932.973571401
 20
989800251.4501412
 10
4999933.058714421
 20
989800251.4691413
 10
4999933.141999991
 20
989800251.4952839
 10
4999933.222571505
 20
989800251.5287128
 10
4999933.299999982
 20
989800251.5689984
 10
4999933.373571528
 20
989800251.6158554
 10
4999933.442714278
 20
989800251.6689984
 10
4999933.5070001
 20
989800251.7278557
 10
4999933.566000012
 20
989800251.7921412
 10
4999933.619142832
 20
989800251.8614267
 10
4999933.666000087
 20
989800251.9349983
 10
4999933.706285845
 20
989800252.0124267
 10
4999933.739714343
 20
989800252.0929983
 10
4999933.76585711
 20
989800252.1761412
 10
4999933.784714317
 20
989800252.261427
 10
4999933.796142912
 20
989800252.3478552
 10
4999933.800000014
 20
989800252.4349983
 10
4999933.796142912
 20
989800252.5221412
 10
4999933.784714317
 20
989800252.6085695
 10
4999933.76585711
 20
989800252.6938554
 10
4999933.739714343
 20
989800252.7769982
 10
4999933.706285845
 20
989800252.8575695
 10
4999933.666000087
 20
989800252.9349982
 10
4999933.619142832
 20
989800253.0085694
 10
4999933.566000012
 20
989800253.0778551
 10
4999933.5070001
 20
989800253.1421411
 10
4999933.442714278
 20
989800253.2009982
 10
4999933.373571528
 20
989800253.2541411
 10
4999933.299999982
 20
989800253.3009984
 10
4999933.222571505
 20
989800253.341284
 10
4999933.141999991
 20
989800253.3747126
 10
4999933.058714421
 20
989800253.4008552
 10
4999932.973571401
 20
989800253.4198557
 10
4999932.887142962
 20
989800253.4311412
 10
4999932.800000122
 20
989800253.4349982
  0
LWPOLYLINE
  5
D4A
330
1E
100
AcDbEntity
  8
0
  6
C6CONTINUOUS
 62
     7
100
AcDbPolyline
 90
       37
 70
     0
 43
0.0
 10
4999932.800000122
 20
989800241.4349983
 10
4999932.887142962
 20
989800241.4388553
 10
4999932.973571401
 20
989800241.4501412
 10
4999933.058714421
 20
989800241.4691411
 10
4999933.141999991
 20
989800241.495284
 10
4999933.222571505
 20
989800241.5287127
 10
4999933.299999982
 20
989800241.5689985
 10
4999933.373571528
 20
989800241.6158556
 10
4999933.442714278
 20
989800241.6689985
 10
4999933.5070001
 20
989800241.7278556
 10
4999933.566000012
 20
989800241.7921412
 10
4999933.619142832
 20
989800241.8614266
 10
4999933.666000087
 20
989800241.9349984
 10
4999933.706285845
 20
989800242.0124267
 10
4999933.739714343
 20
989800242.0929984
 10
4999933.76585711
 20
989800242.1761413
 10
4999933.784714317
 20
989800242.2614268
 10
4999933.796142912
 20
989800242.3478557
 10
4999933.800000014
 20
989800242.4349984
 10
4999933.796142912
 20
989800242.5221411
 10
4999933.784714317
 20
989800242.6085698
 10
4999933.76585711
 20
989800242.6938557
 10
4999933.739714343
 20
989800242.7769982
 10
4999933.706285845
 20
989800242.8575699
 10
4999933.666000087
 20
989800242.9349984
 10
4999933.619142832
 20
989800243.00857
 10
4999933.566000012
 20
989800243.0778557
 10
4999933.5070001
 20
989800243.1421414
 10
4999933.442714278
 20
989800243.2009985
 10
4999933.373571528
 20
989800243.254141
 10
4999933.299999982
 20
989800243.3009985
 10
4999933.222571505
 20
989800243.3412839
 10
4999933.141999991
 20
989800243.3747127
 10
4999933.058714421
 20
989800243.4008557
 10
4999932.973571401
 20
989800243.4198557
 10
4999932.887142962
 20
989800243.4311413
 10
4999932.800000122
 20
989800243.4349983
  0
LWPOLYLINE
  5
D71
330
1E
100
AcDbEntity
  8
0
  6
C6CONTINUOUS
 62
     7
100
AcDbPolyline
 90
       19
 70
     0
 43
0.0
 10
4999876.800000389
 20
989800231.7349984
 10
4999876.801143265
 20
989800231.7088556
 10
4999876.804571895
 20
989800231.6828556
 10
4999876.810143226
 20
989800231.6574267
 10
4999876.81814319
 20
989800231.6324273
 10
4999876.828143319
 20
989800231.6081411
 10
4999876.840143265
 20
989800231.5849986
 10
4999876.854286084
 20
989800231.5628554
 10
4999876.870143305
 20
989800231.5421415
 10
4999876.887857465
 20
989800231.5228556
 10
4999876.907143313
 20
989800231.5051416
 10
4999876.92785746
 20
989800231.4892842
 10
4999876.950000417
 20
989800231.4751412
 10
4999876.973143194
 20
989800231.4631414
 10
4999876.997429026
 20
989800231.4531412
 10
4999877.022428915
 20
989800231.4451414
 10
4999877.047857449
 20
989800231.43957
 10
4999877.073857505
 20
989800231.4361413
 10
4999877.100000443
 20
989800231.4349986
  0
LINE
  5
D86
330
1E
100
AcDbEntity
  8
0
  6
C6CONTINUOUS
 62
     7
100
AcDbLine
 10
4999904.830000295
 20
989800261.1449983
 30
0.0
 11
4999904.830000295
 21
989800231.7349986
 31
0.0
  0
LINE
  5
D87
330
1E
100
AcDbEntity
  8
0
  6
C6CONTINUOUS
 62
     7
100
AcDbLine
 10
4999896.820000352
 20
989800262.9349983
 30
0.0
 11
4999896.820000352
 21
989800231.7349986
 31
0.0
  0
LINE
  5
D88
330
1E
100
AcDbEntity
  8
0
  6
C6CONTINUOUS
 62
     7
100
AcDbLine
 10
4999886.810000283
 20
989800262.9349983
 30
0.0
 11
4999886.810000283
 21
989800231.7349986
 31
0.0
  0
LINE
  5
D89
330
1E
100
AcDbEntity
  8
0
  6
C6CONTINUOUS
 62
     7
100
AcDbLine
 10
4999894.820000228
 20
989800262.9349983
 30
0.0
 11
4999894.820000228
 21
989800231.7349986
 31
0.0
  0
LINE
  5
D8A
330
1E
100
AcDbEntity
  8
0
  6
C6CONTINUOUS
 62
     7
100
AcDbLine
 10
4999884.810000332
 20
989800262.9349983
 30
0.0
 11
4999884.810000332
 21
989800231.7349986
 31
0.0
  0
LINE
  5
D8B
330
1E
100
AcDbEntity
  8
0
  6
C6CONTINUOUS
 62
     7
100
AcDbLine
 10
4999894.520000346
 20
989800231.4349986
 30
0.0
 11
4999887.110000338
 21
989800231.4349986
 31
0.0
  0
LINE
  5
D8C
330
1E
100
AcDbEntity
  8
0
  6
C6CONTINUOUS
 62
     7
100
AcDbLine
 10
4999904.530000241
 20
989800231.4349986
 30
0.0
 11
4999897.120000235
 21
989800231.4349986
 31
0.0
  0
LWPOLYLINE
  5
D8D
330
1E
100
AcDbEntity
  8
0
  6
C6CONTINUOUS
 62
     7
100
AcDbPolyline
 90
       19
 70
     0
 43
0.0
 10
4999904.530000241
 20
989800231.4349986
 10
4999904.556000299
 20
989800231.4361413
 10
4999904.582000183
 20
989800231.43957
 10
4999904.6075716
 20
989800231.4451414
 10
4999904.63257166
 20
989800231.4531412
 10
4999904.656714437
 20
989800231.4631414
 10
4999904.680000268
 20
989800231.4751412
 10
4999904.702000172
 20
989800231.4892842
 10
4999904.722714489
 20
989800231.5051416
 10
4999904.742000167
 20
989800231.5228556
 10
4999904.759714499
 20
989800231.5421415
 10
4999904.775714429
 20
989800231.5628554
 10
4999904.789714538
 20
989800231.5849986
 10
4999904.801857365
 20
989800231.6081411
 10
4999904.811857322
 20
989800231.6324273
 10
4999904.819714576
 20
989800231.6574267
 10
4999904.82542879
 20
989800231.6828556
 10
4999904.828857418
 20
989800231.7088556
 10
4999904.830000295
 20
989800231.7349984
  0
LWPOLYLINE
  5
DA2
330
1E
100
AcDbEntity
  8
0
  6
C6CONTINUOUS
 62
     7
100
AcDbPolyline
 90
       19
 70
     0
 43
0.0
 10
4999896.820000352
 20
989800231.7349984
 10
4999896.821143059
 20
989800231.7088556
 10
4999896.824571687
 20
989800231.6828556
 10
4999896.830143189
 20
989800231.6574267
 10
4999896.838143155
 20
989800231.6324273
 10
4999896.848143111
 20
989800231.6081411
 10
4999896.860143058
 20
989800231.5849986
 10
4999896.874286048
 20
989800231.5628554
 10
4999896.890143098
 20
989800231.5421415
 10
4999896.907857428
 20
989800231.5228556
 10
4999896.927143106
 20
989800231.5051416
 10
4999896.947857425
 20
989800231.4892842
 10
4999896.970000208
 20
989800231.4751412
 10
4999896.99314316
 20
989800231.4631414
 10
4999897.017428815
 20
989800231.4531412
 10
4999897.042428877
 20
989800231.4451414
 10
4999897.067857411
 20
989800231.43957
 10
4999897.093857467
 20
989800231.4361413
 10
4999897.120000237
 20
989800231.4349986
  0
LWPOLYLINE
  5
DB7
330
1E
100
AcDbEntity
  8
0
  6
C6CONTINUOUS
 62
     7
100
AcDbPolyline
 90
       19
 70
     0
 43
0.0
 10
4999894.520000346
 20
989800231.4349986
 10
4999894.546143113
 20
989800231.4361413
 10
4999894.572143169
 20
989800231.43957
 10
4999894.597571702
 20
989800231.4451414
 10
4999894.622571765
 20
989800231.4531412
 10
4999894.646714538
 20
989800231.4631414
 10
4999894.670000201
 20
989800231.4751412
 10
4999894.692143157
 20
989800231.4892842
 10
4999894.712714594
 20
989800231.5051416
 10
4999894.732143153
 20
989800231.5228556
 10
4999894.7497146
 20
989800231.5421415
 10
4999894.765714532
 20
989800231.5628554
 10
4999894.779714642
 20
989800231.5849986
 10
4999894.79185747
 20
989800231.6081411
 10
4999894.801857426
 20
989800231.6324273
 10
4999894.809714511
 20
989800231.6574267
 10
4999894.815428892
 20
989800231.6828556
 10
4999894.818857351
 20
989800231.7088556
 10
4999894.820000228
 20
989800231.7349984
  0
LINE
  5
DCC
330
1E
100
AcDbEntity
  8
0
  6
C6CONTINUOUS
 62
     7
100
AcDbLine
 10
4999884.51000028
 20
989800231.4349986
 30
0.0
 11
4999877.100000442
 21
989800231.4349986
 31
0.0
  0
LWPOLYLINE
  5
DCD
330
1E
100
AcDbEntity
  8
0
  6
C6CONTINUOUS
 62
     7
100
AcDbPolyline
 90
       19
 70
     0
 43
0.0
 10
4999886.810000283
 20
989800231.7349984
 10
4999886.811143162
 20
989800231.7088556
 10
4999886.814571793
 20
989800231.6828556
 10
4999886.820143122
 20
989800231.6574267
 10
4999886.828143258
 20
989800231.6324273
 10
4999886.838143214
 20
989800231.6081411
 10
4999886.850143163
 20
989800231.5849986
 10
4999886.864285981
 20
989800231.5628554
 10
4999886.880143201
 20
989800231.5421415
 10
4999886.897857532
 20
989800231.5228556
 10
4999886.917143212
 20
989800231.5051416
 10
4999886.937857527
 20
989800231.4892842
 10
4999886.960000312
 20
989800231.4751412
 10
4999886.983143261
 20
989800231.4631414
 10
4999887.00742892
 20
989800231.4531412
 10
4999887.032428982
 20
989800231.4451414
 10
4999887.057857515
 20
989800231.43957
 10
4999887.0838574
 20
989800231.4361413
 10
4999887.110000338
 20
989800231.4349986
  0
LWPOLYLINE
  5
DE2
330
1E
100
AcDbEntity
  8
0
  6
C6CONTINUOUS
 62
     7
100
AcDbPolyline
 90
       19
 70
     0
 43
0.0
 10
4999884.51000028
 20
989800231.4349986
 10
4999884.536143217
 20
989800231.4361413
 10
4999884.562143273
 20
989800231.43957
 10
4999884.587571807
 20
989800231.4451414
 10
4999884.612571698
 20
989800231.4531412
 10
4999884.636714645
 20
989800231.4631414
 10
4999884.660000303
 20
989800231.4751412
 10
4999884.682143258
 20
989800231.4892842
 10
4999884.702714696
 20
989800231.5051416
 10
4999884.722143256
 20
989800231.5228556
 10
4999884.739714707
 20
989800231.5421415
 10
4999884.755714636
 20
989800231.5628554
 10
4999884.769714575
 20
989800231.5849986
 10
4999884.781857403
 20
989800231.6081411
 10
4999884.791857528
 20
989800231.6324273
 10
4999884.799714614
 20
989800231.6574267
 10
4999884.805428997
 20
989800231.6828556
 10
4999884.808857456
 20
989800231.7088556
 10
4999884.810000332
 20
989800231.7349984
  0
LINE
  5
DF7
330
1E
100
AcDbEntity
  8
0
  6
C6CONTINUOUS
 62
     7
100
AcDbLine
 10
4999876.800000389
 20
989800261.1449983
 30
0.0
 11
4999876.800000389
 21
989800231.7349986
 31
0.0
  0
LINE
  5
DF8
330
1E
100
AcDbEntity
  8
0
  6
C6CONTINUOUS
 62
     7
100
AcDbLine
 10
4999839.300000615
 20
989800263.9349982
 30
0.0
 11
4999875.800000327
 21
989800263.9349982
 31
0.0
  0
LINE
  5
DF9
330
1E
100
AcDbEntity
  8
0
  6
C6CONTINUOUS
 62
     7
100
AcDbLine
 10
4999876.800000389
 20
989800262.9349983
 30
0.0
 11
4999876.800000389
 21
989800231.7349986
 31
0.0
  0
LWPOLYLINE
  5
DFA
330
1E
100
AcDbEntity
  8
0
  6
C6CONTINUOUS
 62
     7
100
AcDbPolyline
 90
       20
 70
     0
 43
0.0
 10
4999876.800000389
 20
989800262.933284
 10
4999876.800000389
 20
989800262.9349983
 10
4999876.796143287
 20
989800263.0221409
 10
4999876.784714693
 20
989800263.1085695
 10
4999876.765857486
 20
989800263.1938554
 10
4999876.739714721
 20
989800263.2769982
 10
4999876.706286051
 20
989800263.3575696
 10
4999876.666000463
 20
989800263.4349982
 10
4999876.619143209
 20
989800263.5085694
 10
4999876.566000389
 20
989800263.5778553
 10
4999876.507143186
 20
989800263.6421413
 10
4999876.442714653
 20
989800263.7009982
 10
4999876.373571903
 20
989800263.7541411
 10
4999876.300000358
 20
989800263.8009984
 10
4999876.222571881
 20
989800263.841284
 10
4999876.142000368
 20
989800263.8747128
 10
4999876.058714626
 20
989800263.9008552
 10
4999875.973571778
 20
989800263.9198551
 10
4999875.887143168
 20
989800263.931141
 10
4999875.800000327
 20
989800263.9349982
  0
LINE
  5
E10
330
1E
100
AcDbEntity
  8
0
  6
C6CONTINUOUS
 62
     7
100
AcDbLine
 10
4999838.800000583
 20
989800261.9349984
 30
0.0
 11
4999838.800000583
 21
989800263.4349982
 31
0.0
  0
LWPOLYLINE
  5
E11
330
1E
100
AcDbEntity
  8
0
  6
C6CONTINUOUS
 62
     7
100
AcDbPolyline
 90
       19
 70
     0
 43
0.0
 10
4999839.300000615
 20
989800263.9349982
 10
4999839.256429108
 20
989800263.9331412
 10
4999839.213143535
 20
989800263.9274269
 10
4999839.170572022
 20
989800263.9179985
 10
4999839.12900068
 20
989800263.9048552
 10
4999839.088714922
 20
989800263.8881411
 10
4999839.050000684
 20
989800263.8679979
 10
4999839.013143556
 20
989800263.8445696
 10
4999838.978572011
 20
989800263.8179979
 10
4999838.946429268
 20
989800263.7885696
 10
4999838.917000583
 20
989800263.7564268
 10
4999838.890429175
 20
989800263.7218553
 10
4999838.867000632
 20
989800263.6849982
 10
4999838.846857838
 20
989800263.6462839
 10
4999838.830143503
 20
989800263.6059983
 10
4999838.81700068
 20
989800263.5644267
 10
4999838.807572076
 20
989800263.5218556
 10
4999838.801857693
 20
989800263.4785695
 10
4999838.800000583
 20
989800263.4358553
  0
LWPOLYLINE
  5
E26
330
1E
100
AcDbEntity
  8
0
  6
C6CONTINUOUS
 62
     7
100
AcDbPolyline
 90
       37
 70
     0
 43
0.0
 10
4999896.820000352
 20
989800262.9349983
 10
4999896.816143079
 20
989800263.0221409
 10
4999896.804714486
 20
989800263.1085695
 10
4999896.78585745
 20
989800263.1938554
 10
4999896.759714512
 20
989800263.2769982
 10
4999896.726286015
 20
989800263.3575696
 10
4999896.686000256
 20
989800263.4349982
 10
4999896.63914317
 20
989800263.5085694
 10
4999896.586000353
 20
989800263.5778553
 10
4999896.527143151
 20
989800263.6421413
 10
4999896.462714616
 20
989800263.7009982
 10
4999896.393571697
 20
989800263.7541411
 10
4999896.320000321
 20
989800263.8009984
 10
4999896.242571673
 20
989800263.841284
 10
4999896.16200033
 20
989800263.8747128
 10
4999896.07871459
 20
989800263.9008552
 10
4999895.993571739
 20
989800263.9198551
 10
4999895.907143133
 20
989800263.931141
 10
4999895.820000291
 20
989800263.9349982
 10
4999895.732714567
 20
989800263.931141
 10
4999895.64642884
 20
989800263.9198551
 10
4999895.56114311
 20
989800263.9008552
 10
4999895.478000252
 20
989800263.8747128
 10
4999895.397428907
 20
989800263.841284
 10
4999895.320000259
 20
989800263.8009984
 10
4999895.246428883
 20
989800263.7541411
 10
4999895.177143084
 20
989800263.7009982
 10
4999895.112857431
 20
989800263.6421413
 10
4999895.054000226
 20
989800263.5778553
 10
4999895.000714526
 20
989800263.5085694
 10
4999894.954000324
 20
989800263.4349982
 10
4999894.913714567
 20
989800263.3575696
 10
4999894.880286068
 20
989800263.2769982
 10
4999894.854143131
 20
989800263.1938554
 10
4999894.835143214
 20
989800263.1085695
 10
4999894.823714618
 20
989800263.0221409
 10
4999894.820000228
 20
989800262.9349983
  0
LWPOLYLINE
  5
E4D
330
1E
100
AcDbEntity
  8
0
  6
C6CONTINUOUS
 62
     7
100
AcDbPolyline
 90
       37
 70
     0
 43
0.0
 10
4999886.810000283
 20
989800262.9349983
 10
4999886.806143183
 20
989800263.0221409
 10
4999886.794714591
 20
989800263.1085695
 10
4999886.775857553
 20
989800263.1938554
 10
4999886.749714617
 20
989800263.2769982
 10
4999886.716286117
 20
989800263.3575696
 10
4999886.67600036
 20
989800263.4349982
 10
4999886.629143106
 20
989800263.5085694
 10
4999886.576000286
 20
989800263.5778553
 10
4999886.517143253
 20
989800263.6421413
 10
4999886.452714548
 20
989800263.7009982
 10
4999886.3835718
 20
989800263.7541411
 10
4999886.310000255
 20
989800263.8009984
 10
4999886.232571778
 20
989800263.841284
 10
4999886.152000263
 20
989800263.8747128
 10
4999886.068714693
 20
989800263.9008552
 10
4999885.983571844
 20
989800263.9198551
 10
4999885.897143236
 20
989800263.931141
 10
4999885.810000393
 20
989800263.9349982
 10
4999885.722714672
 20
989800263.931141
 10
4999885.636428945
 20
989800263.9198551
 10
4999885.551143214
 20
989800263.9008552
 10
4999885.468000353
 20
989800263.8747128
 10
4999885.387428839
 20
989800263.841284
 10
4999885.310000363
 20
989800263.8009984
 10
4999885.236428987
 20
989800263.7541411
 10
4999885.167143187
 20
989800263.7009982
 10
4999885.102857533
 20
989800263.6421413
 10
4999885.044000331
 20
989800263.5778553
 10
4999884.990714631
 20
989800263.5085694
 10
4999884.944000257
 20
989800263.4349982
 10
4999884.90371467
 20
989800263.3575696
 10
4999884.870286003
 20
989800263.2769982
 10
4999884.844143235
 20
989800263.1938554
 10
4999884.825143147
 20
989800263.1085695
 10
4999884.813714553
 20
989800263.0221409
 10
4999884.810000332
 20
989800262.9349983
  0
LINE
  5
E74
330
1E
100
AcDbEntity
  8
0
  6
C6CONTINUOUS
 62
     7
100
AcDbLine
 10
4999933.299999982
 20
989800263.9349982
 30
0.0
 11
4999905.830000186
 21
989800263.9349982
 31
0.0
  0
LINE
  5
E75
330
1E
100
AcDbEntity
  8
0
  6
C6CONTINUOUS
 62
     7
100
AcDbLine
 10
4999933.800000014
 20
989800261.9349984
 30
0.0
 11
4999933.800000014
 21
989800263.4349982
 31
0.0
  0
LWPOLYLINE
  5
E76
330
1E
100
AcDbEntity
  8
0
  6
C6CONTINUOUS
 62
     7
100
AcDbPolyline
 90
       19
 70
     0
 43
0.0
 10
4999933.800000014
 20
989800263.4349982
 10
4999933.798000022
 20
989800263.4785695
 10
4999933.792428691
 20
989800263.5218556
 10
4999933.783000086
 20
989800263.5644267
 10
4999933.769714383
 20
989800263.6059983
 10
4999933.753142927
 20
989800263.6462839
 10
4999933.732999966
 20
989800263.6849982
 10
4999933.709571423
 20
989800263.7218553
 10
4999933.683000013
 20
989800263.7564268
 10
4999933.653571495
 20
989800263.7885696
 10
4999933.621428587
 20
989800263.8179979
 10
4999933.586714331
 20
989800263.8445696
 10
4999933.550000083
 20
989800263.8679979
 10
4999933.511285845
 20
989800263.8881411
 10
4999933.471000087
 20
989800263.9048552
 10
4999933.429428572
 20
989800263.9179985
 10
4999933.386714352
 20
989800263.9274269
 10
4999933.343571488
 20
989800263.9331412
 10
4999933.299999982
 20
989800263.9349982
  0
LINE
  5
E8B
330
1E
100
AcDbEntity
  8
0
  6
C6CONTINUOUS
 62
     7
100
AcDbLine
 10
4999904.830000295
 20
989800262.9349983
 30
0.0
 11
4999904.830000295
 21
989800231.7349986
 31
0.0
  0
LWPOLYLINE
  5
E8C
330
1E
100
AcDbEntity
  8
0
  6
C6CONTINUOUS
 62
     7
100
AcDbPolyline
 90
       19
 70
     0
 43
0.0
 10
4999905.830000186
 20
989800263.9349982
 10
4999905.742714465
 20
989800263.931141
 10
4999905.656428738
 20
989800263.9198551
 10
4999905.571143007
 20
989800263.9008552
 10
4999905.488000147
 20
989800263.8747128
 10
4999905.407428803
 20
989800263.841284
 10
4999905.330000157
 20
989800263.8009984
 10
4999905.25642878
 20
989800263.7541411
 10
4999905.187143149
 20
989800263.7009982
 10
4999905.122857327
 20
989800263.6421413
 10
4999905.064000293
 20
989800263.5778553
 10
4999905.010714424
 20
989800263.5085694
 10
4999904.964000221
 20
989800263.4349982
 10
4999904.923714463
 20
989800263.3575696
 10
4999904.890285965
 20
989800263.2769982
 10
4999904.864000147
 20
989800263.1938554
 10
4999904.84514311
 20
989800263.1085695
 10
4999904.833714515
 20
989800263.0221409
 10
4999904.830000295
 20
989800262.9367127
  0
LINE
  5
EA1
330
1E
100
AcDbEntity
  8
0
  6
C6CONTINUOUS
 62
     7
100
AcDbLine
 10
4999908.830000203
 20
989800243.7349985
 30
0.0
 11
4999908.830000203
 21
989800251.1349982
 31
0.0
  0
LINE
  5
EA2
330
1E
100
AcDbEntity
  8
0
  6
C6CONTINUOUS
 62
     7
100
AcDbLine
 10
4999908.830000203
 20
989800253.7349984
 30
0.0
 11
4999908.830000203
 21
989800261.1349982
 31
0.0
  0
LWPOLYLINE
  5
EA3
330
1E
100
AcDbEntity
  8
0
  6
C6CONTINUOUS
 62
     7
100
AcDbPolyline
 90
       19
 70
     0
 43
0.0
 10
4999909.130000256
 20
989800261.4349982
 10
4999909.103857318
 20
989800261.4338556
 10
4999909.077857261
 20
989800261.4304267
 10
4999909.052428728
 20
989800261.4248554
 10
4999909.027428836
 20
989800261.4168557
 10
4999909.003143009
 20
989800261.4068554
 10
4999908.980000228
 20
989800261.3948555
 10
4999908.957857273
 20
989800261.3807122
 10
4999908.937143127
 20
989800261.3648552
 10
4999908.917857278
 20
989800261.3471412
 10
4999908.900143118
 20
989800261.3278553
 10
4999908.884285899
 20
989800261.3071414
 10
4999908.87014308
 20
989800261.2849984
 10
4999908.858000249
 20
989800261.2618556
 10
4999908.848000124
 20
989800261.2375696
 10
4999908.84014304
 20
989800261.2125694
 10
4999908.834571708
 20
989800261.1871412
 10
4999908.831000198
 20
989800261.1611412
 10
4999908.830000203
 20
989800261.1355696
  0
LWPOLYLINE
  5
EB8
330
1E
100
AcDbEntity
  8
0
  6
C6CONTINUOUS
 62
     7
100
AcDbPolyline
 90
       19
 70
     0
 43
0.0
 10
4999909.130000256
 20
989800251.4349984
 10
4999909.103857318
 20
989800251.4338557
 10
4999909.077857261
 20
989800251.4304266
 10
4999909.052428728
 20
989800251.4248554
 10
4999909.027428836
 20
989800251.4168556
 10
4999909.003143009
 20
989800251.4068553
 10
4999908.980000228
 20
989800251.3948554
 10
4999908.957857273
 20
989800251.3807128
 10
4999908.937143127
 20
989800251.3648554
 10
4999908.917857278
 20
989800251.3471412
 10
4999908.900143118
 20
989800251.3278552
 10
4999908.884285899
 20
989800251.3071412
 10
4999908.87014308
 20
989800251.2849984
 10
4999908.858000249
 20
989800251.2618557
 10
4999908.848000124
 20
989800251.2375699
 10
4999908.84014304
 20
989800251.21257
 10
4999908.834571708
 20
989800251.1871412
 10
4999908.831000198
 20
989800251.161141
 10
4999908.830000203
 20
989800251.1349982
  0
LWPOLYLINE
  5
ECD
330
1E
100
AcDbEntity
  8
0
  6
C6CONTINUOUS
 62
     7
100
AcDbPolyline
 90
       20
 70
     0
 43
0.0
 10
4999908.830000203
 20
989800253.7355694
 10
4999908.830000203
 20
989800253.7349984
 10
4999908.831000198
 20
989800253.7088554
 10
4999908.834571708
 20
989800253.6828556
 10
4999908.84014304
 20
989800253.6574267
 10
4999908.848000124
 20
989800253.632427
 10
4999908.858000249
 20
989800253.6081412
 10
4999908.87014308
 20
989800253.5849984
 10
4999908.884285899
 20
989800253.5628554
 10
4999908.900143118
 20
989800253.5421412
 10
4999908.917857278
 20
989800253.5228554
 10
4999908.937143127
 20
989800253.5051412
 10
4999908.957857273
 20
989800253.4892841
 10
4999908.980000228
 20
989800253.4751411
 10
4999909.003143009
 20
989800253.4631412
 10
4999909.027428836
 20
989800253.4531412
 10
4999909.052428728
 20
989800253.4451412
 10
4999909.077857261
 20
989800253.4395695
 10
4999909.103857318
 20
989800253.4361411
 10
4999909.130000256
 20
989800253.4349982
  0
LINE
  5
EE3
330
1E
100
AcDbEntity
  8
0
  6
C6CONTINUOUS
 62
     7
100
AcDbLine
 10
4999908.830000203
 20
989800231.9349984
 30
0.0
 11
4999908.830000203
 21
989800241.1349985
 31
0.0
  0
LWPOLYLINE
  5
EE4
330
1E
100
AcDbEntity
  8
0
  6
C6CONTINUOUS
 62
     7
100
AcDbPolyline
 90
       19
 70
     0
 43
0.0
 10
4999909.130000256
 20
989800241.4349983
 10
4999909.103857318
 20
989800241.4338556
 10
4999909.077857261
 20
989800241.4304267
 10
4999909.052428728
 20
989800241.4248557
 10
4999909.027428836
 20
989800241.4168557
 10
4999909.003143009
 20
989800241.4068557
 10
4999908.980000228
 20
989800241.3948557
 10
4999908.957857273
 20
989800241.3807127
 10
4999908.937143127
 20
989800241.3648557
 10
4999908.917857278
 20
989800241.3471413
 10
4999908.900143118
 20
989800241.3278558
 10
4999908.884285899
 20
989800241.3071411
 10
4999908.87014308
 20
989800241.2849983
 10
4999908.858000249
 20
989800241.2618557
 10
4999908.848000124
 20
989800241.2375696
 10
4999908.84014304
 20
989800241.2125695
 10
4999908.834571708
 20
989800241.1871411
 10
4999908.831000198
 20
989800241.1611411
 10
4999908.830000203
 20
989800241.1349985
  0
LWPOLYLINE
  5
EF9
330
1E
100
AcDbEntity
  8
0
  6
C6CONTINUOUS
 62
     7
100
AcDbPolyline
 90
       19
 70
     0
 43
0.0
 10
4999908.830000203
 20
989800243.7349985
 10
4999908.831000198
 20
989800243.7088553
 10
4999908.834571708
 20
989800243.6828555
 10
4999908.84014304
 20
989800243.6574266
 10
4999908.848000124
 20
989800243.6324267
 10
4999908.858000249
 20
989800243.6081412
 10
4999908.87014308
 20
989800243.5849985
 10
4999908.884285899
 20
989800243.5628557
 10
4999908.900143118
 20
989800243.5421412
 10
4999908.917857278
 20
989800243.5228557
 10
4999908.937143127
 20
989800243.5051413
 10
4999908.957857273
 20
989800243.4892839
 10
4999908.980000228
 20
989800243.4751411
 10
4999909.003143009
 20
989800243.4631411
 10
4999909.027428836
 20
989800243.4531415
 10
4999909.052428728
 20
989800243.4451411
 10
4999909.077857261
 20
989800243.4395699
 10
4999909.103857318
 20
989800243.4361412
 10
4999909.130000256
 20
989800243.4349983
  0
LWPOLYLINE
  5
F0E
330
1E
100
AcDbEntity
  8
0
  6
C6CONTINUOUS
 62
     7
100
AcDbPolyline
 90
       19
 70
     0
 43
0.0
 10
4999908.830000203
 20
989800231.9349984
 10
4999908.831857311
 20
989800231.8914267
 10
4999908.837571696
 20
989800231.8481411
 10
4999908.847000127
 20
989800231.8055699
 10
4999908.860143123
 20
989800231.7639983
 10
4999908.876714407
 20
989800231.7237127
 10
4999908.897000251
 20
989800231.6849986
 10
4999908.920428794
 20
989800231.6481413
 10
4999908.947000204
 20
989800231.61357
 10
4999908.976428718
 20
989800231.581427
 10
4999909.008571631
 20
989800231.5519985
 10
4999909.043143006
 20
989800231.525427
 10
4999909.080000132
 20
989800231.5019985
 10
4999909.118714541
 20
989800231.4818556
 10
4999909.159000128
 20
989800231.4651412
 10
4999909.200571643
 20
989800231.4519985
 10
4999909.243142982
 20
989800231.4425699
 10
4999909.286428727
 20
989800231.4368557
 10
4999909.330000233
 20
989800231.4349986
  0
LINE
  5
F23
330
1E
100
AcDbEntity
  8
0
  6
C6CONTINUOUS
 62
     7
100
AcDbLine
 10
4999929.810714296
 20
989800229.9377127
 30
0.0
 11
4999930.810714356
 21
989800229.9377127
 31
0.0
  0
LINE
  5
F24
330
1E
100
AcDbEntity
  8
0
  6
C6CONTINUOUS
 62
     7
100
AcDbLine
 10
4999930.810714356
 20
989800229.9377127
 30
0.0
 11
4999930.810714356
 21
989800228.9377126
 31
0.0
  0
LINE
  5
F25
330
1E
100
AcDbEntity
  8
0
  6
C6CONTINUOUS
 62
     7
100
AcDbLine
 10
4999839.810714836
 20
989800230.937713
 30
0.0
 11
4999839.810714836
 21
989800229.9377127
 31
0.0
  0
LINE
  5
F26
330
1E
100
AcDbEntity
  8
0
  6
C6CONTINUOUS
 62
     7
100
AcDbLine
 10
4999865.310714717
 20
989800232.4377126
 30
0.0
 11
4999869.810714653
 21
989800232.4377126
 31
0.0
  0
LINE
  5
F27
330
1E
100
AcDbEntity
  8
0
  6
C6CONTINUOUS
 62
     7
100
AcDbLine
 10
4999838.810714943
 20
989800230.937713
 30
0.0
 11
4999839.810714836
 21
989800230.937713
 31
0.0
  0
LINE
  5
F28
330
1E
100
AcDbEntity
  8
0
  6
C6CONTINUOUS
 62
     7
100
AcDbLine
 10
4999841.31071493
 20
989800229.9377127
 30
0.0
 11
4999841.31071493
 21
989800231.9377127
 31
0.0
  0
LINE
  5
F29
330
1E
100
AcDbEntity
  8
0
  6
C6CONTINUOUS
 62
     7
100
AcDbLine
 10
4999839.810714836
 20
989800229.9377127
 30
0.0
 11
4999841.31071493
 21
989800229.9377127
 31
0.0
  0
LINE
  5
F2A
330
1E
100
AcDbEntity
  8
0
  6
C6CONTINUOUS
 62
     7
100
AcDbLine
 10
4999841.81071496
 20
989800231.9377127
 30
0.0
 11
4999865.310714717
 21
989800232.4377126
 31
0.0
  0
LINE
  5
F2B
330
1E
100
AcDbEntity
  8
0
  6
C6CONTINUOUS
 62
     7
100
AcDbLine
 10
4999841.31071493
 20
989800231.4377126
 30
0.0
 11
4999841.81071496
 21
989800231.4377126
 31
0.0
  0
LINE
  5
F2C
330
1E
100
AcDbEntity
  8
0
  6
C6CONTINUOUS
 62
     7
100
AcDbLine
 10
4999837.810714882
 20
989800231.9377127
 30
0.0
 11
4999841.31071493
 21
989800231.9377127
 31
0.0
  0
LINE
  5
F2D
330
1E
100
AcDbEntity
  8
0
  6
C6CONTINUOUS
 62
     7
100
AcDbLine
 10
4999841.81071496
 20
989800231.4377126
 30
0.0
 11
4999841.81071496
 21
989800231.9377127
 31
0.0
  0
LINE
  5
F2E
330
1E
100
AcDbEntity
  8
0
  6
C6CONTINUOUS
 62
     7
100
AcDbLine
 10
4999929.810714296
 20
989800187.937713
 30
0.0
 11
4999930.810714356
 21
989800187.937713
 31
0.0
  0
LINE
  5
F2F
330
1E
100
AcDbEntity
  8
0
  6
C6CONTINUOUS
 62
     7
100
AcDbLine
 10
4999865.310714717
 20
989800185.4377133
 30
0.0
 11
4999869.810714653
 21
989800185.4377133
 31
0.0
  0
LINE
  5
F30
330
1E
100
AcDbEntity
  8
0
  6
C6CONTINUOUS
 62
     7
100
AcDbLine
 10
4999865.310714717
 20
989800185.4377133
 30
0.0
 11
4999841.81071496
 21
989800185.9377133
 31
0.0
  0
LINE
  5
F31
330
1E
100
AcDbEntity
  8
0
  6
C6CONTINUOUS
 62
     7
100
AcDbLine
 10
4999837.810714882
 20
989800185.9377133
 30
0.0
 11
4999841.31071493
 21
989800185.9377133
 31
0.0
  0
LINE
  5
F32
330
1E
100
AcDbEntity
  8
0
  6
C6CONTINUOUS
 62
     7
100
AcDbLine
 10
4999838.810714943
 20
989800186.9377132
 30
0.0
 11
4999839.810714836
 21
989800186.9377132
 31
0.0
  0
LINE
  5
F33
330
1E
100
AcDbEntity
  8
0
  6
C6CONTINUOUS
 62
     7
100
AcDbLine
 10
4999841.81071496
 20
989800186.437713
 30
0.0
 11
4999841.81071496
 21
989800185.9377133
 31
0.0
  0
LINE
  5
F34
330
1E
100
AcDbEntity
  8
0
  6
C6CONTINUOUS
 62
     7
100
AcDbLine
 10
4999839.810714836
 20
989800187.937713
 30
0.0
 11
4999841.31071493
 21
989800187.937713
 31
0.0
  0
LINE
  5
F35
330
1E
100
AcDbEntity
  8
0
  6
C6CONTINUOUS
 62
     7
100
AcDbLine
 10
4999841.31071493
 20
989800187.937713
 30
0.0
 11
4999841.31071493
 21
989800185.9377133
 31
0.0
  0
LINE
  5
F36
330
1E
100
AcDbEntity
  8
0
  6
C6CONTINUOUS
 62
     7
100
AcDbLine
 10
4999839.810714836
 20
989800186.9377132
 30
0.0
 11
4999839.810714836
 21
989800187.937713
 31
0.0
  0
LINE
  5
F37
330
1E
100
AcDbEntity
  8
0
  6
C6CONTINUOUS
 62
     7
100
AcDbLine
 10
4999841.31071493
 20
989800186.437713
 30
0.0
 11
4999841.81071496
 21
989800186.437713
 31
0.0
  0
LINE
  5
F38
330
1E
100
AcDbEntity
  8
0
  6
C6CONTINUOUS
 62
     7
100
AcDbLine
 10
4999865.310714717
 20
989800185.4349988
 30
0.0
 11
4999865.310714717
 21
989800232.4377126
 31
0.0
  0
LINE
  5
F39
330
1E
100
AcDbEntity
  8
0
  6
C6CONTINUOUS
 62
     7
100
AcDbLine
 10
4999869.810714653
 20
989800185.4377133
 30
0.0
 11
4999869.810714653
 21
989800232.4377126
 31
0.0
  0
LINE
  5
F3A
330
1E
100
AcDbEntity
  8
0
  6
C6CONTINUOUS
 62
     7
100
AcDbLine
 10
4999930.810714356
 20
989800228.9377126
 30
0.0
 11
4999936.81071439
 21
989800228.9377126
 31
0.0
  0
LINE
  5
F3B
330
1E
100
AcDbEntity
  8
0
  6
C6CONTINUOUS
 62
     7
100
AcDbLine
 10
4999930.810714356
 20
989800188.937713
 30
0.0
 11
4999936.81071439
 21
989800188.937713
 31
0.0
  0
LINE
  5
F3C
330
1E
100
AcDbEntity
  8
0
  6
C6CONTINUOUS
 62
     7
100
AcDbLine
 10
4999930.810714356
 20
989800188.937713
 30
0.0
 11
4999936.81071439
 21
989800188.937713
 31
0.0
  0
LINE
  5
F3D
330
1E
100
AcDbEntity
  8
0
  6
C6CONTINUOUS
 62
     7
100
AcDbLine
 10
4999930.810714356
 20
989800187.937713
 30
0.0
 11
4999930.810714356
 21
989800188.937713
 31
0.0
  0
LINE
  5
F3E
330
1E
100
AcDbEntity
  8
0
  6
C6CONTINUOUS
 62
     7
100
AcDbLine
 10
4999929.810714296
 20
989800187.937713
 30
0.0
 11
4999929.810714296
 21
989800229.9377127
 31
0.0
  0
LINE
  5
F3F
330
1E
100
AcDbEntity
  8
0
  6
C6CONTINUOUS
 62
     7
100
AcDbLine
 10
4999931.310714389
 20
989800206.4377127
 30
0.0
 11
4999931.310714389
 21
989800211.4377126
 31
0.0
  0
LINE
  5
F40
330
1E
100
AcDbEntity
  8
0
  6
C6CONTINUOUS
 62
     7
100
AcDbLine
 10
4999929.810714296
 20
989800206.4377127
 30
0.0
 11
4999937.810714282
 21
989800206.4377127
 31
0.0
  0
LINE
  5
F41
330
1E
100
AcDbEntity
  8
0
  6
C6CONTINUOUS
 62
     7
100
AcDbLine
 10
4999838.810714943
 20
989800226.4377126
 30
0.0
 11
4999847.810714822
 21
989800226.4377126
 31
0.0
  0
LINE
  5
F42
330
1E
100
AcDbEntity
  8
0
  6
C6CONTINUOUS
 62
     7
100
AcDbLine
 10
4999847.810714822
 20
989800213.4377126
 30
0.0
 11
4999847.810714822
 21
989800226.4377126
 31
0.0
  0
LINE
  5
F43
330
1E
100
AcDbEntity
  8
0
  6
C6CONTINUOUS
 62
     7
100
AcDbLine
 10
4999838.810714943
 20
989800213.4377126
 30
0.0
 11
4999847.810714822
 21
989800213.4377126
 31
0.0
  0
LINE
  5
F44
330
1E
100
AcDbEntity
  8
0
  6
C6CONTINUOUS
 62
     7
100
AcDbLine
 10
4999846.310714898
 20
989800213.9377126
 30
0.0
 11
4999846.310714898
 21
989800225.9377127
 31
0.0
  0
LINE
  5
F45
330
1E
100
AcDbEntity
  8
0
  6
C6CONTINUOUS
 62
     7
100
AcDbLine
 10
4999846.310714898
 20
989800225.9377127
 30
0.0
 11
4999847.810714822
 21
989800225.9377127
 31
0.0
  0
LINE
  5
F46
330
1E
100
AcDbEntity
  8
0
  6
C6CONTINUOUS
 62
     7
100
AcDbLine
 10
4999847.810714822
 20
989800225.9377127
 30
0.0
 11
4999847.810714822
 21
989800213.9377126
 31
0.0
  0
LINE
  5
F47
330
1E
100
AcDbEntity
  8
0
  6
C6CONTINUOUS
 62
     7
100
AcDbLine
 10
4999847.810714822
 20
989800213.9377126
 30
0.0
 11
4999846.310714898
 21
989800213.9377126
 31
0.0
  0
LINE
  5
F48
330
1E
100
AcDbEntity
  8
0
  6
C6CONTINUOUS
 62
     7
100
AcDbLine
 10
4999847.31071479
 20
989800220.4377126
 30
0.0
 11
4999847.31071479
 21
989800219.5091414
 31
0.0
  0
LINE
  5
F49
330
1E
100
AcDbEntity
  8
0
  6
C6CONTINUOUS
 62
     7
100
AcDbLine
 10
4999846.310714898
 20
989800219.4377127
 30
0.0
 11
4999847.31071479
 21
989800219.4377127
 31
0.0
  0
LINE
  5
F4A
330
1E
100
AcDbEntity
  8
0
  6
C6CONTINUOUS
 62
     7
100
AcDbLine
 10
4999846.310714898
 20
989800220.4377126
 30
0.0
 11
4999847.31071479
 21
989800220.4377126
 31
0.0
  0
LINE
  5
F4B
330
1E
100
AcDbEntity
  8
0
  6
C6CONTINUOUS
 62
     7
100
AcDbLine
 10
4999845.025000655
 20
989800215.4377126
 30
0.0
 11
4999845.025000655
 21
989800223.9377126
 31
0.0
  0
LWPOLYLINE
  5
F4C
330
1E
100
AcDbEntity
  8
0
  6
C6CONTINUOUS
 62
     7
100
AcDbPolyline
 90
       37
 70
     0
 43
0.0
 10
4999843.096429205
 20
989800223.9377126
 10
4999843.040286227
 20
989800223.9362842
 10
4999842.984429181
 20
989800223.9322844
 10
4999842.928571966
 20
989800223.9255699
 10
4999842.873143394
 20
989800223.9161412
 10
4999842.818143465
 20
989800223.9041414
 10
4999842.763714887
 20
989800223.8894267
 10
4999842.709857663
 20
989800223.8721414
 10
4999842.656714843
 20
989800223.8522842
 10
4999842.604429139
 20
989800223.8298557
 10
4999842.553000546
 20
989800223.8049986
 10
4999842.502714833
 20
989800223.7775699
 10
4999842.453571996
 20
989800223.7478557
 10
4999842.405572036
 20
989800223.7158561
 10
4999842.359000543
 20
989800223.6815699
 10
4999842.313714808
 20
989800223.6449984
 10
4999842.27000059
 20
989800223.6062842
 10
4999842.227857724
 20
989800223.5655699
 10
4999842.187286374
 20
989800223.522713
 10
4999842.148571966
 20
989800223.4781412
 10
4999842.111571957
 20
989800223.4317127
 10
4999842.07642923
 20
989800223.3834274
 10
4999842.043286322
 20
989800223.3335699
 10
4999842.012000526
 20
989800223.2821415
 10
4999841.983000653
 20
989800223.2294267
 10
4999841.9560006
 20
989800223.1751412
 10
4999841.93114342
 20
989800223.1197127
 10
4999841.908571992
 20
989800223.0631416
 10
4999841.888286317
 20
989800223.0055695
 10
4999841.870286394
 20
989800222.9469986
 10
4999841.854572058
 20
989800222.8877126
 10
4999841.841143472
 20
989800222.8277126
 10
4999841.830286231
 20
989800222.7669984
 10
4999841.821714912
 20
989800222.7059986
 10
4999841.815572056
 20
989800222.6445699
 10
4999841.812000546
 20
989800222.5828557
 10
4999841.81071496
 20
989800222.5209985
  0
LWPOLYLINE
  5
F73
330
1E
100
AcDbEntity
  8
0
  6
C6CONTINUOUS
 62
     7
100
AcDbPolyline
 90
       37
 70
     0
 43
0.0
 10
4999841.81071496
 20
989800216.8544273
 10
4999841.812000546
 20
989800216.7925698
 10
4999841.815572056
 20
989800216.7308558
 10
4999841.821714912
 20
989800216.6694274
 10
4999841.830286231
 20
989800216.6084268
 10
4999841.841143472
 20
989800216.5477127
 10
4999841.854572058
 20
989800216.4877127
 10
4999841.870286394
 20
989800216.4284267
 10
4999841.888286317
 20
989800216.3698556
 10
4999841.908571992
 20
989800216.3122843
 10
4999841.93114342
 20
989800216.255713
 10
4999841.9560006
 20
989800216.2002843
 10
4999841.983000653
 20
989800216.1459986
 10
4999842.012000526
 20
989800216.0932843
 10
4999842.043286322
 20
989800216.0418556
 10
4999842.07642923
 20
989800215.9919986
 10
4999842.111571957
 20
989800215.943713
 10
4999842.148571966
 20
989800215.8972843
 10
4999842.187286374
 20
989800215.8527127
 10
4999842.227857724
 20
989800215.8098556
 10
4999842.27000059
 20
989800215.7691415
 10
4999842.313714808
 20
989800215.7304274
 10
4999842.359000543
 20
989800215.6938556
 10
4999842.405572036
 20
989800215.6595699
 10
4999842.453571996
 20
989800215.6275699
 10
4999842.502714833
 20
989800215.5978556
 10
4999842.553000546
 20
989800215.5704272
 10
4999842.604429139
 20
989800215.5455699
 10
4999842.656714843
 20
989800215.5231417
 10
4999842.709857663
 20
989800215.5032839
 10
4999842.763714887
 20
989800215.4859986
 10
4999842.818143465
 20
989800215.4712843
 10
4999842.873143394
 20
989800215.4592845
 10
4999842.928571966
 20
989800215.4498557
 10
4999842.984429181
 20
989800215.4431415
 10
4999843.040286227
 20
989800215.4391411
 10
4999843.096429205
 20
989800215.4377126
  0
LWPOLYLINE
  5
F9A
330
1E
100
AcDbEntity
  8
0
  6
C6CONTINUOUS
 62
     7
100
AcDbPolyline
 90
       37
 70
     0
 43
0.0
 10
4999845.025000654
 20
989800223.2294267
 10
4999845.024429131
 20
989800223.260284
 10
4999845.022572022
 20
989800223.2911411
 10
4999845.019572034
 20
989800223.3218557
 10
4999845.015286291
 20
989800223.3524273
 10
4999845.009714787
 20
989800223.3827128
 10
4999845.003143462
 20
989800223.4127126
 10
4999844.995286377
 20
989800223.4424273
 10
4999844.986286247
 20
989800223.4715699
 10
4999844.976143408
 20
989800223.500427
 10
4999844.964714814
 20
989800223.5287128
 10
4999844.952429103
 20
989800223.5564273
 10
4999844.938857639
 20
989800223.5835699
 10
4999844.924286347
 20
989800223.6099989
 10
4999844.908714889
 20
989800223.6357127
 10
4999844.892143435
 20
989800223.6605695
 10
4999844.874571986
 20
989800223.6847126
 10
4999844.856143422
 20
989800223.7078557
 10
4999844.836714862
 20
989800223.7302842
 10
4999844.816429188
 20
989800223.7515699
 10
4999844.79542911
 20
989800223.7719984
 10
4999844.773429205
 20
989800223.7912843
 10
4999844.750857778
 20
989800223.8095694
 10
4999844.727571947
 20
989800223.8268556
 10
4999844.703572051
 20
989800223.8428556
 10
4999844.679000633
 20
989800223.8577127
 10
4999844.653857691
 20
989800223.8712843
 10
4999844.628143396
 20
989800223.8838557
 10
4999844.602000628
 20
989800223.8949985
 10
4999844.575429218
 20
989800223.9049985
 10
4999844.548572046
 20
989800223.9135699
 10
4999844.521286233
 20
989800223.9208556
 10
4999844.493714828
 20
989800223.9269986
 10
4999844.466000538
 20
989800223.9317127
 10
4999844.438143374
 20
989800223.9349983
 10
4999844.410143496
 20
989800223.9369986
 10
4999844.382143447
 20
989800223.9377126
  0
LWPOLYLINE
  5
FC1
330
1E
100
AcDbEntity
  8
0
  6
C6CONTINUOUS
 62
     7
100
AcDbPolyline
 90
       37
 70
     0
 43
0.0
 10
4999844.382143447
 20
989800215.4377126
 10
4999844.410143496
 20
989800215.4384274
 10
4999844.438143374
 20
989800215.4404267
 10
4999844.466000538
 20
989800215.4437127
 10
4999844.493714828
 20
989800215.4484274
 10
4999844.521286233
 20
989800215.4545697
 10
4999844.548572046
 20
989800215.4618556
 10
4999844.575429218
 20
989800215.4704274
 10
4999844.602000628
 20
989800215.4804268
 10
4999844.628143396
 20
989800215.4915699
 10
4999844.653857691
 20
989800215.5041414
 10
4999844.679000633
 20
989800215.5177128
 10
4999844.703572051
 20
989800215.5325695
 10
4999844.727571947
 20
989800215.5485702
 10
4999844.750857778
 20
989800215.5658556
 10
4999844.773429205
 20
989800215.5841414
 10
4999844.79542911
 20
989800215.6034273
 10
4999844.816429188
 20
989800215.6238558
 10
4999844.836714862
 20
989800215.6451415
 10
4999844.856143422
 20
989800215.6675698
 10
4999844.874571986
 20
989800215.6907127
 10
4999844.892143435
 20
989800215.7148557
 10
4999844.908714889
 20
989800215.7397128
 10
4999844.924286347
 20
989800215.7654273
 10
4999844.938857639
 20
989800215.7918556
 10
4999844.952429103
 20
989800215.8189985
 10
4999844.964714814
 20
989800215.8467127
 10
4999844.976143408
 20
989800215.8749985
 10
4999844.986286247
 20
989800215.9038556
 10
4999844.995286377
 20
989800215.9329987
 10
4999845.003143462
 20
989800215.9627127
 10
4999845.009714787
 20
989800215.9927127
 10
4999845.015286291
 20
989800216.0229983
 10
4999845.019572034
 20
989800216.0535696
 10
4999845.022572022
 20
989800216.0842844
 10
4999845.024429131
 20
989800216.1151412
 10
4999845.025000654
 20
989800216.1459986
  0
LINE
  5
FE8
330
1E
100
AcDbEntity
  8
0
  6
C6CONTINUOUS
 62
     7
100
AcDbLine
 10
4999843.096429203
 20
989800223.9377126
 30
0.0
 11
4999844.382143448
 21
989800223.9377126
 31
0.0
  0
LINE
  5
FE9
330
1E
100
AcDbEntity
  8
0
  6
C6CONTINUOUS
 62
     7
100
AcDbLine
 10
4999843.096429203
 20
989800215.4377126
 30
0.0
 11
4999844.382143448
 21
989800215.4377126
 31
0.0
  0
LINE
  5
FEA
330
1E
100
AcDbEntity
  8
0
  6
C6CONTINUOUS
 62
     7
100
AcDbLine
 10
4999845.025000655
 20
989800215.4377126
 30
0.0
 11
4999846.310714898
 21
989800215.4377126
 31
0.0
  0
LINE
  5
FEB
330
1E
100
AcDbEntity
  8
0
  6
C6CONTINUOUS
 62
     7
100
AcDbLine
 10
4999845.025000655
 20
989800223.9377126
 30
0.0
 11
4999846.310714898
 21
989800223.9377126
 31
0.0
  0
LINE
  5
FEC
330
1E
100
AcDbEntity
  8
0
  6
C6CONTINUOUS
 62
     7
100
AcDbLine
 10
4999841.81071496
 20
989800216.8544273
 30
0.0
 11
4999841.81071496
 21
989800222.5209985
 31
0.0
  0
LINE
  5
FED
330
1E
100
AcDbEntity
  8
0
  6
C6CONTINUOUS
 62
     7
100
AcDbLine
 10
4999845.025000655
 20
989800221.1044273
 30
0.0
 11
4999846.310714898
 21
989800221.1044273
 31
0.0
  0
LINE
  5
FEE
330
1E
100
AcDbEntity
  8
0
  6
C6CONTINUOUS
 62
     7
100
AcDbLine
 10
4999845.025000655
 20
989800220.3959984
 30
0.0
 11
4999846.310714898
 21
989800220.3959984
 31
0.0
  0
LINE
  5
FEF
330
1E
100
AcDbEntity
  8
0
  6
C6CONTINUOUS
 62
     7
100
AcDbLine
 10
4999838.810714943
 20
989800204.4377127
 30
0.0
 11
4999847.810714822
 21
989800204.4377127
 31
0.0
  0
LINE
  5
FF0
330
1E
100
AcDbEntity
  8
0
  6
C6CONTINUOUS
 62
     7
100
AcDbLine
 10
4999847.810714822
 20
989800191.4377127
 30
0.0
 11
4999847.810714822
 21
989800204.4377127
 31
0.0
  0
LINE
  5
FF1
330
1E
100
AcDbEntity
  8
0
  6
C6CONTINUOUS
 62
     7
100
AcDbLine
 10
4999838.810714943
 20
989800191.4377127
 30
0.0
 11
4999847.810714822
 21
989800191.4377127
 31
0.0
  0
LINE
  5
FF2
330
1E
100
AcDbEntity
  8
0
  6
C6CONTINUOUS
 62
     7
100
AcDbLine
 10
4999846.310714898
 20
989800191.9377126
 30
0.0
 11
4999846.310714898
 21
989800203.9377127
 31
0.0
  0
LINE
  5
FF3
330
1E
100
AcDbEntity
  8
0
  6
C6CONTINUOUS
 62
     7
100
AcDbLine
 10
4999846.310714898
 20
989800203.9377127
 30
0.0
 11
4999847.810714822
 21
989800203.9377127
 31
0.0
  0
LINE
  5
FF4
330
1E
100
AcDbEntity
  8
0
  6
C6CONTINUOUS
 62
     7
100
AcDbLine
 10
4999847.810714822
 20
989800203.9377127
 30
0.0
 11
4999847.810714822
 21
989800191.9377126
 31
0.0
  0
LINE
  5
FF5
330
1E
100
AcDbEntity
  8
0
  6
C6CONTINUOUS
 62
     7
100
AcDbLine
 10
4999847.810714822
 20
989800191.9377126
 30
0.0
 11
4999846.310714898
 21
989800191.9377126
 31
0.0
  0
LINE
  5
FF6
330
1E
100
AcDbEntity
  8
0
  6
C6CONTINUOUS
 62
     7
100
AcDbLine
 10
4999847.31071479
 20
989800198.4377126
 30
0.0
 11
4999847.31071479
 21
989800197.5091414
 31
0.0
  0
LINE
  5
FF7
330
1E
100
AcDbEntity
  8
0
  6
C6CONTINUOUS
 62
     7
100
AcDbLine
 10
4999846.310714898
 20
989800197.437713
 30
0.0
 11
4999847.31071479
 21
989800197.437713
 31
0.0
  0
LINE
  5
FF8
330
1E
100
AcDbEntity
  8
0
  6
C6CONTINUOUS
 62
     7
100
AcDbLine
 10
4999846.310714898
 20
989800198.4377126
 30
0.0
 11
4999847.31071479
 21
989800198.4377126
 31
0.0
  0
LINE
  5
FF9
330
1E
100
AcDbEntity
  8
0
  6
C6CONTINUOUS
 62
     7
100
AcDbLine
 10
4999845.025000655
 20
989800193.4377132
 30
0.0
 11
4999845.025000655
 21
989800201.9377127
 31
0.0
  0
LWPOLYLINE
  5
FFA
330
1E
100
AcDbEntity
  8
0
  6
C6CONTINUOUS
 62
     7
100
AcDbPolyline
 90
       37
 70
     0
 43
0.0
 10
4999843.096429205
 20
989800201.9377127
 10
4999843.040286227
 20
989800201.9362843
 10
4999842.984429181
 20
989800201.9322843
 10
4999842.928571966
 20
989800201.9255699
 10
4999842.873143394
 20
989800201.9161417
 10
4999842.818143465
 20
989800201.9041411
 10
4999842.763714887
 20
989800201.8894272
 10
4999842.709857663
 20
989800201.8721415
 10
4999842.656714843
 20
989800201.852284
 10
4999842.604429139
 20
989800201.8298557
 10
4999842.553000546
 20
989800201.8049986
 10
4999842.502714833
 20
989800201.7775699
 10
4999842.453571996
 20
989800201.7478557
 10
4999842.405572036
 20
989800201.7158557
 10
4999842.359000543
 20
989800201.6815699
 10
4999842.313714808
 20
989800201.6449986
 10
4999842.27000059
 20
989800201.6062843
 10
4999842.227857724
 20
989800201.5655697
 10
4999842.187286374
 20
989800201.5227127
 10
4999842.148571966
 20
989800201.4781415
 10
4999842.111571957
 20
989800201.4317127
 10
4999842.07642923
 20
989800201.3834274
 10
4999842.043286322
 20
989800201.3335698
 10
4999842.012000526
 20
989800201.2821415
 10
4999841.983000653
 20
989800201.229427
 10
4999841.9560006
 20
989800201.1751415
 10
4999841.93114342
 20
989800201.1197126
 10
4999841.908571992
 20
989800201.0631415
 10
4999841.888286317
 20
989800201.00557
 10
4999841.870286394
 20
989800200.9469985
 10
4999841.854572058
 20
989800200.887713
 10
4999841.841143472
 20
989800200.8277131
 10
4999841.830286231
 20
989800200.7669989
 10
4999841.821714912
 20
989800200.7059986
 10
4999841.815572056
 20
989800200.6445699
 10
4999841.812000546
 20
989800200.5828557
 10
4999841.81071496
 20
989800200.5209988
  0
LWPOLYLINE
  5
1021
330
1E
100
AcDbEntity
  8
0
  6
C6CONTINUOUS
 62
     7
100
AcDbPolyline
 90
       37
 70
     0
 43
0.0
 10
4999841.81071496
 20
989800194.8544273
 10
4999841.812000546
 20
989800194.7925699
 10
4999841.815572056
 20
989800194.7308561
 10
4999841.821714912
 20
989800194.6694273
 10
4999841.830286231
 20
989800194.6084272
 10
4999841.841143472
 20
989800194.547713
 10
4999841.854572058
 20
989800194.4877128
 10
4999841.870286394
 20
989800194.4284272
 10
4999841.888286317
 20
989800194.3698556
 10
4999841.908571992
 20
989800194.3122844
 10
4999841.93114342
 20
989800194.2557128
 10
4999841.9560006
 20
989800194.200284
 10
4999841.983000653
 20
989800194.1459988
 10
4999842.012000526
 20
989800194.0932843
 10
4999842.043286322
 20
989800194.0418557
 10
4999842.07642923
 20
989800193.9919986
 10
4999842.111571957
 20
989800193.9437127
 10
4999842.148571966
 20
989800193.8972843
 10
4999842.187286374
 20
989800193.8527126
 10
4999842.227857724
 20
989800193.8098561
 10
4999842.27000059
 20
989800193.7691415
 10
4999842.313714808
 20
989800193.7304274
 10
4999842.359000543
 20
989800193.6938555
 10
4999842.405572036
 20
989800193.6595699
 10
4999842.453571996
 20
989800193.6275699
 10
4999842.502714833
 20
989800193.5978557
 10
4999842.553000546
 20
989800193.5704273
 10
4999842.604429139
 20
989800193.5455699
 10
4999842.656714843
 20
989800193.5231416
 10
4999842.709857663
 20
989800193.5032842
 10
4999842.763714887
 20
989800193.4859983
 10
4999842.818143465
 20
989800193.4712844
 10
4999842.873143394
 20
989800193.4592846
 10
4999842.928571966
 20
989800193.4498557
 10
4999842.984429181
 20
989800193.4431414
 10
4999843.040286227
 20
989800193.4391414
 10
4999843.096429205
 20
989800193.4377132
  0
LWPOLYLINE
  5
1048
330
1E
100
AcDbEntity
  8
0
  6
C6CONTINUOUS
 62
     7
100
AcDbPolyline
 90
       37
 70
     0
 43
0.0
 10
4999845.025000654
 20
989800201.229427
 10
4999845.024429131
 20
989800201.2602844
 10
4999845.022572022
 20
989800201.2911415
 10
4999845.019572034
 20
989800201.3218556
 10
4999845.015286291
 20
989800201.3524273
 10
4999845.009714787
 20
989800201.3827127
 10
4999845.003143462
 20
989800201.4127133
 10
4999844.995286377
 20
989800201.4424273
 10
4999844.986286247
 20
989800201.4715698
 10
4999844.976143408
 20
989800201.5004273
 10
4999844.964714814
 20
989800201.5287127
 10
4999844.952429103
 20
989800201.5564273
 10
4999844.938857639
 20
989800201.5835697
 10
4999844.924286347
 20
989800201.6099985
 10
4999844.908714889
 20
989800201.6357127
 10
4999844.892143435
 20
989800201.6605699
 10
4999844.874571986
 20
989800201.6847126
 10
4999844.856143422
 20
989800201.7078557
 10
4999844.836714862
 20
989800201.730284
 10
4999844.816429188
 20
989800201.7515704
 10
4999844.79542911
 20
989800201.7719988
 10
4999844.773429205
 20
989800201.7912842
 10
4999844.750857778
 20
989800201.8095699
 10
4999844.727571947
 20
989800201.8268556
 10
4999844.703572051
 20
989800201.8428559
 10
4999844.679000633
 20
989800201.857713
 10
4999844.653857691
 20
989800201.8712844
 10
4999844.628143396
 20
989800201.883856
 10
4999844.602000628
 20
989800201.8949988
 10
4999844.575429218
 20
989800201.9049986
 10
4999844.548572046
 20
989800201.9135699
 10
4999844.521286233
 20
989800201.9208556
 10
4999844.493714828
 20
989800201.9269986
 10
4999844.466000538
 20
989800201.9317127
 10
4999844.438143374
 20
989800201.9349988
 10
4999844.410143496
 20
989800201.9369986
 10
4999844.382143447
 20
989800201.9377127
  0
LWPOLYLINE
  5
106F
330
1E
100
AcDbEntity
  8
0
  6
C6CONTINUOUS
 62
     7
100
AcDbPolyline
 90
       37
 70
     0
 43
0.0
 10
4999844.382143447
 20
989800193.4377132
 10
4999844.410143496
 20
989800193.4384273
 10
4999844.438143374
 20
989800193.4404273
 10
4999844.466000538
 20
989800193.4437127
 10
4999844.493714828
 20
989800193.4484273
 10
4999844.521286233
 20
989800193.45457
 10
4999844.548572046
 20
989800193.4618561
 10
4999844.575429218
 20
989800193.4704273
 10
4999844.602000628
 20
989800193.4804273
 10
4999844.628143396
 20
989800193.4915702
 10
4999844.653857691
 20
989800193.5041415
 10
4999844.679000633
 20
989800193.5177132
 10
4999844.703572051
 20
989800193.5325703
 10
4999844.727571947
 20
989800193.5485703
 10
4999844.750857778
 20
989800193.5658561
 10
4999844.773429205
 20
989800193.5841415
 10
4999844.79542911
 20
989800193.6034273
 10
4999844.816429188
 20
989800193.6238557
 10
4999844.836714862
 20
989800193.6451416
 10
4999844.856143422
 20
989800193.6675699
 10
4999844.874571986
 20
989800193.690713
 10
4999844.892143435
 20
989800193.7148556
 10
4999844.908714889
 20
989800193.7397127
 10
4999844.924286347
 20
989800193.7654273
 10
4999844.938857639
 20
989800193.7918557
 10
4999844.952429103
 20
989800193.8189988
 10
4999844.964714814
 20
989800193.846713
 10
4999844.976143408
 20
989800193.8749985
 10
4999844.986286247
 20
989800193.9038557
 10
4999844.995286377
 20
989800193.9329986
 10
4999845.003143462
 20
989800193.962713
 10
4999845.009714787
 20
989800193.992713
 10
4999845.015286291
 20
989800194.0229985
 10
4999845.019572034
 20
989800194.0535699
 10
4999845.022572022
 20
989800194.0842846
 10
4999845.024429131
 20
989800194.1151411
 10
4999845.025000654
 20
989800194.1459988
  0
LINE
  5
1096
330
1E
100
AcDbEntity
  8
0
  6
C6CONTINUOUS
 62
     7
100
AcDbLine
 10
4999843.096429203
 20
989800201.9377127
 30
0.0
 11
4999844.382143448
 21
989800201.9377127
 31
0.0
  0
LINE
  5
1097
330
1E
100
AcDbEntity
  8
0
  6
C6CONTINUOUS
 62
     7
100
AcDbLine
 10
4999843.096429203
 20
989800193.4377132
 30
0.0
 11
4999844.382143448
 21
989800193.4377132
 31
0.0
  0
LINE
  5
1098
330
1E
100
AcDbEntity
  8
0
  6
C6CONTINUOUS
 62
     7
100
AcDbLine
 10
4999845.025000655
 20
989800193.4377132
 30
0.0
 11
4999846.310714898
 21
989800193.4377132
 31
0.0
  0
LINE
  5
1099
330
1E
100
AcDbEntity
  8
0
  6
C6CONTINUOUS
 62
     7
100
AcDbLine
 10
4999845.025000655
 20
989800201.9377127
 30
0.0
 11
4999846.310714898
 21
989800201.9377127
 31
0.0
  0
LINE
  5
109A
330
1E
100
AcDbEntity
  8
0
  6
C6CONTINUOUS
 62
     7
100
AcDbLine
 10
4999841.81071496
 20
989800194.8544273
 30
0.0
 11
4999841.81071496
 21
989800200.5209988
 31
0.0
  0
LINE
  5
109B
330
1E
100
AcDbEntity
  8
0
  6
C6CONTINUOUS
 62
     7
100
AcDbLine
 10
4999845.025000655
 20
989800199.1044273
 30
0.0
 11
4999846.310714898
 21
989800199.1044273
 31
0.0
  0
LINE
  5
109C
330
1E
100
AcDbEntity
  8
0
  6
C6CONTINUOUS
 62
     7
100
AcDbLine
 10
4999845.025000655
 20
989800198.3959986
 30
0.0
 11
4999846.310714898
 21
989800198.3959986
 31
0.0
  0
LINE
  5
109D
330
1E
100
AcDbEntity
  8
0
  6
C6CONTINUOUS
 62
     7
100
AcDbLine
 10
4999838.810714943
 20
989800186.9377132
 30
0.0
 11
4999838.810714943
 21
989800230.937713
 31
0.0
  0
LINE
  5
109E
330
1E
100
AcDbEntity
  8
0
  6
C6CONTINUOUS
 62
     7
100
AcDbLine
 10
4999937.800000092
 20
989800211.4377126
 30
0.0
 11
4999929.810714296
 21
989800211.4377126
 31
0.0
  0
LINE
  5
109F
330
1E
100
AcDbEntity
  8
0
  6
C6CONTINUOUS
 62
     7
100
AcDbLine
 10
4999936.81071439
 20
989800232.4377126
 30
0.0
 11
4999937.810714282
 21
989800232.4377126
 31
0.0
  0
LINE
  5
10A0
330
1E
100
AcDbEntity
  8
0
  6
C6CONTINUOUS
 62
     7
100
AcDbLine
 10
4999933.810714373
 20
989800231.9377127
 30
0.0
 11
4999936.81071439
 21
989800231.9377127
 31
0.0
  0
LINE
  5
10A1
330
1E
100
AcDbEntity
  8
0
  6
C6CONTINUOUS
 62
     7
100
AcDbLine
 10
4999933.810714373
 20
989800231.9377127
 30
0.0
 11
4999933.810714373
 21
989800230.937713
 31
0.0
  0
LINE
  5
10A2
330
1E
100
AcDbEntity
  8
0
  6
C6CONTINUOUS
 62
     7
100
AcDbLine
 10
4999933.810714373
 20
989800230.937713
 30
0.0
 11
4999936.81071439
 21
989800230.937713
 31
0.0
  0
LINE
  5
10A3
330
1E
100
AcDbEntity
  8
0
  6
C6CONTINUOUS
 62
     7
100
AcDbLine
 10
4999933.810714373
 20
989800185.9377133
 30
0.0
 11
4999933.810714373
 21
989800186.9377132
 31
0.0
  0
LINE
  5
10A4
330
1E
100
AcDbEntity
  8
0
  6
C6CONTINUOUS
 62
     7
100
AcDbLine
 10
4999936.81071439
 20
989800185.4377133
 30
0.0
 11
4999937.810714282
 21
989800185.4377133
 31
0.0
  0
LINE
  5
10A5
330
1E
100
AcDbEntity
  8
0
  6
C6CONTINUOUS
 62
     7
100
AcDbLine
 10
4999933.810714373
 20
989800185.9377133
 30
0.0
 11
4999936.81071439
 21
989800185.9377133
 31
0.0
  0
LINE
  5
10A6
330
1E
100
AcDbEntity
  8
0
  6
C6CONTINUOUS
 62
     7
100
AcDbLine
 10
4999933.810714373
 20
989800186.9377132
 30
0.0
 11
4999936.81071439
 21
989800186.9377132
 31
0.0
  0
LINE
  5
10A7
330
1E
100
AcDbEntity
  8
0
  6
C6CONTINUOUS
 62
     7
100
AcDbLine
 10
4999936.81071439
 20
989800194.937713
 30
0.0
 11
4999937.810714282
 21
989800194.937713
 31
0.0
  0
LINE
  5
10A8
330
1E
100
AcDbEntity
  8
0
  6
C6CONTINUOUS
 62
     7
100
AcDbLine
 10
4999936.81071439
 20
989800196.4377126
 30
0.0
 11
4999937.810714282
 21
989800196.4377126
 31
0.0
  0
LINE
  5
10A9
330
1E
100
AcDbEntity
  8
0
  6
C6CONTINUOUS
 62
     7
100
AcDbLine
 10
4999936.81071439
 20
989800185.4377133
 30
0.0
 11
4999936.81071439
 21
989800206.4377127
 31
0.0
  0
LINE
  5
10AA
330
1E
100
AcDbEntity
  8
0
  6
C6CONTINUOUS
 62
     7
100
AcDbLine
 10
4999937.810714282
 20
989800185.4377133
 30
0.0
 11
4999937.810714282
 21
989800206.4377127
 31
0.0
  0
LINE
  5
10AB
330
1E
100
AcDbEntity
  8
0
  6
C6CONTINUOUS
 62
     7
100
AcDbLine
 10
4999936.81071439
 20
989800222.9377127
 30
0.0
 11
4999937.810714282
 21
989800222.9377127
 31
0.0
  0
LINE
  5
10AC
330
1E
100
AcDbEntity
  8
0
  6
C6CONTINUOUS
 62
     7
100
AcDbLine
 10
4999936.81071439
 20
989800221.4377127
 30
0.0
 11
4999937.810714282
 21
989800221.4377127
 31
0.0
  0
LINE
  5
10AD
330
1E
100
AcDbEntity
  8
0
  6
C6CONTINUOUS
 62
     7
100
AcDbLine
 10
4999936.81071439
 20
989800211.4377126
 30
0.0
 11
4999936.81071439
 21
989800232.4377126
 31
0.0
  0
LINE
  5
10AE
330
1E
100
AcDbEntity
  8
0
  6
C6CONTINUOUS
 62
     7
100
AcDbLine
 10
4999937.810714282
 20
989800232.4377126
 30
0.0
 11
4999937.810714282
 21
989800211.4377126
 31
0.0
  0
LINE
  5
10AF
330
1E
100
AcDbEntity
  8
0
  6
C6CONTINUOUS
 62
     7
100
AcDbLine
 10
4999837.810714882
 20
989800185.9377133
 30
0.0
 11
4999837.810714882
 21
989800231.9377127
 31
0.0
  0
LINE
  5
10B0
330
1E
100
AcDbEntity
  8
0
  6
CENTERX2
 62
     1
100
AcDbLine
 10
4999833.800000613
 20
989800208.9377126
 30
0.0
 11
4999938.820857181
 21
989800208.9377126
 31
0.0
  0
LINE
  5
10B1
330
1E
100
AcDbEntity
  8
0
  6
C6CONTINUOUS
 62
     7
100
AcDbLine
 10
4999909.130000255
 20
989800156.4349989
 30
0.0
 11
4999933.299999982
 21
989800156.4349989
 31
0.0
  0
LINE
  5
10B2
330
1E
100
AcDbEntity
  8
0
  6
C6CONTINUOUS
 62
     7
100
AcDbLine
 10
4999909.130000255
 20
989800164.4349989
 30
0.0
 11
4999932.800000122
 21
989800164.4349989
 31
0.0
  0
LINE
  5
10B3
330
1E
100
AcDbEntity
  8
0
  6
C6CONTINUOUS
 62
     7
100
AcDbLine
 10
4999909.130000255
 20
989800166.4349989
 30
0.0
 11
4999932.800000122
 21
989800166.4349989
 31
0.0
  0
LINE
  5
10B4
330
1E
100
AcDbEntity
  8
0
  6
C6CONTINUOUS
 62
     7
100
AcDbLine
 10
4999932.800000122
 20
989800174.4349988
 30
0.0
 11
4999909.130000255
 21
989800174.4349988
 31
0.0
  0
LWPOLYLINE
  5
10B5
330
1E
100
AcDbEntity
  8
0
  6
C6CONTINUOUS
 62
     7
100
AcDbPolyline
 90
       38
 70
     0
 43
0.0
 10
4999932.798285721
 20
989800164.434999
 10
4999932.800000122
 20
989800164.434999
 10
4999932.887142962
 20
989800164.4388561
 10
4999932.973571401
 20
989800164.4501416
 10
4999933.058714421
 20
989800164.4691415
 10
4999933.141999991
 20
989800164.4952843
 10
4999933.222571505
 20
989800164.5287127
 10
4999933.299999982
 20
989800164.5689987
 10
4999933.373571528
 20
989800164.6158563
 10
4999933.442714278
 20
989800164.6689989
 10
4999933.5070001
 20
989800164.7278556
 10
4999933.566000012
 20
989800164.7921415
 10
4999933.619142832
 20
989800164.8614274
 10
4999933.666000087
 20
989800164.9349989
 10
4999933.706285845
 20
989800165.0124273
 10
4999933.739714343
 20
989800165.0929987
 10
4999933.76585711
 20
989800165.1761417
 10
4999933.784714317
 20
989800165.2614276
 10
4999933.796142912
 20
989800165.347856
 10
4999933.800000014
 20
989800165.4349988
 10
4999933.796142912
 20
989800165.5221415
 10
4999933.784714317
 20
989800165.6085703
 10
4999933.76585711
 20
989800165.6938559
 10
4999933.739714343
 20
989800165.7769988
 10
4999933.706285845
 20
989800165.8575703
 10
4999933.666000087
 20
989800165.9349986
 10
4999933.619142832
 20
989800166.0085704
 10
4999933.566000012
 20
989800166.0778561
 10
4999933.5070001
 20
989800166.1421416
 10
4999933.442714278
 20
989800166.2009988
 10
4999933.373571528
 20
989800166.2541416
 10
4999933.299999982
 20
989800166.3009988
 10
4999933.222571505
 20
989800166.3412843
 10
4999933.141999991
 20
989800166.3747132
 10
4999933.058714421
 20
989800166.400856
 10
4999932.973571401
 20
989800166.4198561
 10
4999932.887142962
 20
989800166.431142
 10
4999932.801714352
 20
989800166.434999
  0
LWPOLYLINE
  5
10DD
330
1E
100
AcDbEntity
  8
0
  6
C6CONTINUOUS
 62
     7
100
AcDbPolyline
 90
       20
 70
     0
 43
0.0
 10
4999933.298999986
 20
989800153.9349989
 10
4999933.299999982
 20
989800153.9349989
 10
4999933.343571488
 20
989800153.9368561
 10
4999933.386714352
 20
989800153.9425703
 10
4999933.429428572
 20
989800153.951999
 10
4999933.471000087
 20
989800153.9651417
 10
4999933.511285845
 20
989800153.9818562
 10
4999933.550000083
 20
989800154.0019988
 10
4999933.586714331
 20
989800154.0254275
 10
4999933.621428587
 20
989800154.0519988
 10
4999933.653571495
 20
989800154.0814275
 10
4999933.683000013
 20
989800154.1135704
 10
4999933.709571423
 20
989800154.1481416
 10
4999933.732999966
 20
989800154.1849989
 10
4999933.753142927
 20
989800154.2237132
 10
4999933.769714383
 20
989800154.263999
 10
4999933.783000086
 20
989800154.3055704
 10
4999933.792428691
 20
989800154.3481415
 10
4999933.798000022
 20
989800154.3914276
 10
4999933.800000014
 20
989800154.4341417
  0
LINE
  5
10F3
330
1E
100
AcDbEntity
  8
0
  6
C6CONTINUOUS
 62
     7
100
AcDbLine
 10
4999933.800000014
 20
989800155.9349989
 30
0.0
 11
4999933.800000014
 21
989800154.4349988
 31
0.0
  0
LWPOLYLINE
  5
10F4
330
1E
100
AcDbEntity
  8
0
  6
C6CONTINUOUS
 62
     7
100
AcDbPolyline
 90
       20
 70
     0
 43
0.0
 10
4999933.800000014
 20
989800155.9341418
 10
4999933.800000014
 20
989800155.9349989
 10
4999933.798000022
 20
989800155.9785702
 10
4999933.792428691
 20
989800156.021856
 10
4999933.783000086
 20
989800156.0644274
 10
4999933.769714383
 20
989800156.105999
 10
4999933.753142927
 20
989800156.1462846
 10
4999933.732999966
 20
989800156.1849989
 10
4999933.709571423
 20
989800156.2218562
 10
4999933.683000013
 20
989800156.2564273
 10
4999933.653571495
 20
989800156.2885703
 10
4999933.621428587
 20
989800156.3179988
 10
4999933.586714331
 20
989800156.3445703
 10
4999933.550000083
 20
989800156.3679988
 10
4999933.511285845
 20
989800156.3881416
 10
4999933.471000087
 20
989800156.4048561
 10
4999933.429428572
 20
989800156.417999
 10
4999933.386714352
 20
989800156.4274276
 10
4999933.343571488
 20
989800156.4331416
 10
4999933.300857268
 20
989800156.4349989
  0
LINE
  5
110A
330
1E
100
AcDbEntity
  8
0
  6
C6CONTINUOUS
 62
     7
100
AcDbLine
 10
4999908.830000203
 20
989800174.1349988
 30
0.0
 11
4999908.830000203
 21
989800166.7349987
 31
0.0
  0
LWPOLYLINE
  5
110B
330
1E
100
AcDbEntity
  8
0
  6
C6CONTINUOUS
 62
     7
100
AcDbPolyline
 90
       19
 70
     0
 43
0.0
 10
4999909.130000256
 20
989800174.4349988
 10
4999909.103857318
 20
989800174.4338559
 10
4999909.077857261
 20
989800174.4304274
 10
4999909.052428728
 20
989800174.424856
 10
4999909.027428836
 20
989800174.4168556
 10
4999909.003143009
 20
989800174.4068556
 10
4999908.980000228
 20
989800174.394856
 10
4999908.957857273
 20
989800174.3807132
 10
4999908.937143127
 20
989800174.364856
 10
4999908.917857278
 20
989800174.3471414
 10
4999908.900143118
 20
989800174.3278557
 10
4999908.884285899
 20
989800174.3071414
 10
4999908.87014308
 20
989800174.2849988
 10
4999908.858000249
 20
989800174.2618561
 10
4999908.848000124
 20
989800174.2375702
 10
4999908.84014304
 20
989800174.2125703
 10
4999908.834571708
 20
989800174.1871416
 10
4999908.831000198
 20
989800174.1611416
 10
4999908.830000203
 20
989800174.1349988
  0
LINE
  5
1120
330
1E
100
AcDbEntity
  8
0
  6
C6CONTINUOUS
 62
     7
100
AcDbLine
 10
4999908.830000203
 20
989800164.1349988
 30
0.0
 11
4999908.830000203
 21
989800156.7349988
 31
0.0
  0
LWPOLYLINE
  5
1121
330
1E
100
AcDbEntity
  8
0
  6
C6CONTINUOUS
 62
     7
100
AcDbPolyline
 90
       19
 70
     0
 43
0.0
 10
4999909.130000256
 20
989800164.434999
 10
4999909.103857318
 20
989800164.433856
 10
4999909.077857261
 20
989800164.4304272
 10
4999909.052428728
 20
989800164.4248562
 10
4999909.027428836
 20
989800164.416856
 10
4999909.003143009
 20
989800164.406856
 10
4999908.980000228
 20
989800164.394856
 10
4999908.957857273
 20
989800164.3807132
 10
4999908.937143127
 20
989800164.364856
 10
4999908.917857278
 20
989800164.3471417
 10
4999908.900143118
 20
989800164.327856
 10
4999908.884285899
 20
989800164.3071415
 10
4999908.87014308
 20
989800164.2849987
 10
4999908.858000249
 20
989800164.2618561
 10
4999908.848000124
 20
989800164.2375703
 10
4999908.84014304
 20
989800164.2125702
 10
4999908.834571708
 20
989800164.1871417
 10
4999908.831000198
 20
989800164.1611417
 10
4999908.830000203
 20
989800164.1349988
  0
LWPOLYLINE
  5
1136
330
1E
100
AcDbEntity
  8
0
  6
C6CONTINUOUS
 62
     7
100
AcDbPolyline
 90
       19
 70
     0
 43
0.0
 10
4999908.830000203
 20
989800166.7349987
 10
4999908.831000198
 20
989800166.7088561
 10
4999908.834571708
 20
989800166.6828561
 10
4999908.84014304
 20
989800166.6574273
 10
4999908.848000124
 20
989800166.6324272
 10
4999908.858000249
 20
989800166.6081416
 10
4999908.87014308
 20
989800166.5849989
 10
4999908.884285899
 20
989800166.562856
 10
4999908.900143118
 20
989800166.542142
 10
4999908.917857278
 20
989800166.522856
 10
4999908.937143127
 20
989800166.5051415
 10
4999908.957857273
 20
989800166.4892843
 10
4999908.980000228
 20
989800166.4751417
 10
4999909.003143009
 20
989800166.463142
 10
4999909.027428836
 20
989800166.4531415
 10
4999909.052428728
 20
989800166.4451415
 10
4999909.077857261
 20
989800166.4395703
 10
4999909.103857318
 20
989800166.4361418
 10
4999909.130000256
 20
989800166.434999
  0
LWPOLYLINE
  5
114B
330
1E
100
AcDbEntity
  8
0
  6
C6CONTINUOUS
 62
     7
100
AcDbPolyline
 90
       19
 70
     0
 43
0.0
 10
4999908.830000203
 20
989800156.7349988
 10
4999908.831000198
 20
989800156.7088561
 10
4999908.834571708
 20
989800156.6828561
 10
4999908.84014304
 20
989800156.6574276
 10
4999908.848000124
 20
989800156.6324275
 10
4999908.858000249
 20
989800156.6081417
 10
4999908.87014308
 20
989800156.5849988
 10
4999908.884285899
 20
989800156.5628561
 10
4999908.900143118
 20
989800156.5421418
 10
4999908.917857278
 20
989800156.5228559
 10
4999908.937143127
 20
989800156.5051416
 10
4999908.957857273
 20
989800156.4892846
 10
4999908.980000228
 20
989800156.4751416
 10
4999909.003143009
 20
989800156.4631421
 10
4999909.027428836
 20
989800156.4531416
 10
4999909.052428728
 20
989800156.4451416
 10
4999909.077857261
 20
989800156.4395702
 10
4999909.103857318
 20
989800156.4361416
 10
4999909.130000256
 20
989800156.4349989
  0
LINE
  5
1160
330
1E
100
AcDbEntity
  8
0
  6
C6CONTINUOUS
 62
     7
100
AcDbLine
 10
4999839.300000615
 20
989800153.9349989
 30
0.0
 11
4999875.800000327
 21
989800153.9349989
 31
0.0
  0
LINE
  5
1161
330
1E
100
AcDbEntity
  8
0
  6
C6CONTINUOUS
 62
     7
100
AcDbLine
 10
4999933.299999982
 20
989800153.9349989
 30
0.0
 11
4999905.830000186
 21
989800153.9349989
 31
0.0
  0
LINE
  5
1162
330
1E
100
AcDbEntity
  8
0
  6
C6CONTINUOUS
 62
     7
100
AcDbLine
 10
4999869.800000467
 20
989800174.1349988
 30
0.0
 11
4999869.800000467
 21
989800166.7349987
 31
0.0
  0
LWPOLYLINE
  5
1163
330
1E
100
AcDbEntity
  8
0
  6
C6CONTINUOUS
 62
     7
100
AcDbPolyline
 90
       19
 70
     0
 43
0.0
 10
4999869.800000467
 20
989800174.1349988
 10
4999869.798857588
 20
989800174.1611416
 10
4999869.79542896
 20
989800174.1871416
 10
4999869.789714749
 20
989800174.2125703
 10
4999869.781857491
 20
989800174.2375702
 10
4999869.771857537
 20
989800174.2618561
 10
4999869.759714707
 20
989800174.2849988
 10
4999869.745714768
 20
989800174.3071414
 10
4999869.729714668
 20
989800174.3278557
 10
4999869.71214322
 20
989800174.3471414
 10
4999869.692714661
 20
989800174.364856
 10
4999869.672143224
 20
989800174.3807132
 10
4999869.65000044
 20
989800174.394856
 10
4999869.626714777
 20
989800174.4068556
 10
4999869.602571832
 20
989800174.4168556
 10
4999869.577571941
 20
989800174.424856
 10
4999869.552143237
 20
989800174.4304274
 10
4999869.526143348
 20
989800174.4338559
 10
4999869.500000413
 20
989800174.4349988
  0
LINE
  5
1178
330
1E
100
AcDbEntity
  8
0
  6
C6CONTINUOUS
 62
     7
100
AcDbLine
 10
4999839.800000645
 20
989800174.4349988
 30
0.0
 11
4999869.500000412
 21
989800174.4349988
 31
0.0
  0
LWPOLYLINE
  5
1179
330
1E
100
AcDbEntity
  8
0
  6
C6CONTINUOUS
 62
     7
100
AcDbPolyline
 90
       19
 70
     0
 43
0.0
 10
4999869.800000467
 20
989800164.1349988
 10
4999869.798857588
 20
989800164.1611417
 10
4999869.79542896
 20
989800164.1871417
 10
4999869.789714749
 20
989800164.2125702
 10
4999869.781857491
 20
989800164.2375703
 10
4999869.771857537
 20
989800164.2618561
 10
4999869.759714707
 20
989800164.2849987
 10
4999869.745714768
 20
989800164.3071415
 10
4999869.729714668
 20
989800164.327856
 10
4999869.71214322
 20
989800164.3471417
 10
4999869.692714661
 20
989800164.364856
 10
4999869.672143224
 20
989800164.3807132
 10
4999869.65000044
 20
989800164.394856
 10
4999869.626714777
 20
989800164.406856
 10
4999869.602571832
 20
989800164.416856
 10
4999869.577571941
 20
989800164.4248562
 10
4999869.552143237
 20
989800164.4304272
 10
4999869.526143348
 20
989800164.433856
 10
4999869.500000413
 20
989800164.434999
  0
LWPOLYLINE
  5
118E
330
1E
100
AcDbEntity
  8
0
  6
C6CONTINUOUS
 62
     7
100
AcDbPolyline
 90
       19
 70
     0
 43
0.0
 10
4999869.500000413
 20
989800166.434999
 10
4999869.526143348
 20
989800166.4361418
 10
4999869.552143237
 20
989800166.4395703
 10
4999869.577571941
 20
989800166.4451415
 10
4999869.602571832
 20
989800166.4531415
 10
4999869.626714777
 20
989800166.463142
 10
4999869.65000044
 20
989800166.4751417
 10
4999869.672143224
 20
989800166.4892843
 10
4999869.692714661
 20
989800166.5051415
 10
4999869.71214322
 20
989800166.522856
 10
4999869.729714668
 20
989800166.542142
 10
4999869.745714768
 20
989800166.562856
 10
4999869.759714707
 20
989800166.5849989
 10
4999869.771857537
 20
989800166.6081416
 10
4999869.781857491
 20
989800166.6324272
 10
4999869.789714749
 20
989800166.6574273
 10
4999869.79542896
 20
989800166.6828561
 10
4999869.798857588
 20
989800166.7088561
 10
4999869.800000467
 20
989800166.7349987
  0
LINE
  5
11A3
330
1E
100
AcDbEntity
  8
0
  6
C6CONTINUOUS
 62
     7
100
AcDbLine
 10
4999839.800000645
 20
989800164.4349989
 30
0.0
 11
4999869.500000412
 21
989800164.4349989
 31
0.0
  0
LINE
  5
11A4
330
1E
100
AcDbEntity
  8
0
  6
C6CONTINUOUS
 62
     7
100
AcDbLine
 10
4999839.800000645
 20
989800166.4349989
 30
0.0
 11
4999869.500000412
 21
989800166.4349989
 31
0.0
  0
LWPOLYLINE
  5
11A5
330
1E
100
AcDbEntity
  8
0
  6
C6CONTINUOUS
 62
     7
100
AcDbPolyline
 90
       19
 70
     0
 43
0.0
 10
4999869.500000413
 20
989800156.4349989
 10
4999869.526143348
 20
989800156.4361416
 10
4999869.552143237
 20
989800156.4395702
 10
4999869.577571941
 20
989800156.4451416
 10
4999869.602571832
 20
989800156.4531416
 10
4999869.626714777
 20
989800156.4631421
 10
4999869.65000044
 20
989800156.4751416
 10
4999869.672143224
 20
989800156.4892846
 10
4999869.692714661
 20
989800156.5051416
 10
4999869.71214322
 20
989800156.5228559
 10
4999869.729714668
 20
989800156.5421418
 10
4999869.745714768
 20
989800156.5628561
 10
4999869.759714707
 20
989800156.5849988
 10
4999869.771857537
 20
989800156.6081417
 10
4999869.781857491
 20
989800156.6324275
 10
4999869.789714749
 20
989800156.6574276
 10
4999869.79542896
 20
989800156.6828561
 10
4999869.798857588
 20
989800156.7088561
 10
4999869.800000467
 20
989800156.7349988
  0
LINE
  5
11BA
330
1E
100
AcDbEntity
  8
0
  6
C6CONTINUOUS
 62
     7
100
AcDbLine
 10
4999839.300000615
 20
989800156.4349989
 30
0.0
 11
4999869.500000412
 21
989800156.4349989
 31
0.0
  0
LINE
  5
11BB
330
1E
100
AcDbEntity
  8
0
  6
C6CONTINUOUS
 62
     7
100
AcDbLine
 10
4999869.800000467
 20
989800164.1349988
 30
0.0
 11
4999869.800000467
 21
989800156.7349988
 31
0.0
  0
LWPOLYLINE
  5
11BC
330
1E
100
AcDbEntity
  8
0
  6
C6CONTINUOUS
 62
     7
100
AcDbPolyline
 90
       37
 70
     0
 43
0.0
 10
4999894.820000228
 20
989800154.934999
 10
4999894.823714618
 20
989800154.8478561
 10
4999894.835143214
 20
989800154.7614274
 10
4999894.854143131
 20
989800154.6761415
 10
4999894.880286068
 20
989800154.5929988
 10
4999894.913714567
 20
989800154.5124275
 10
4999894.954000324
 20
989800154.4349988
 10
4999895.000714526
 20
989800154.3614276
 10
4999895.054000226
 20
989800154.2921418
 10
4999895.112857431
 20
989800154.2278562
 10
4999895.177143084
 20
989800154.1689987
 10
4999895.246428883
 20
989800154.1158562
 10
4999895.320000259
 20
989800154.0689987
 10
4999895.397428907
 20
989800154.0287133
 10
4999895.478000252
 20
989800153.9952844
 10
4999895.56114311
 20
989800153.9691419
 10
4999895.64642884
 20
989800153.9501414
 10
4999895.732714567
 20
989800153.9388559
 10
4999895.820000291
 20
989800153.9349989
 10
4999895.907143133
 20
989800153.9388559
 10
4999895.993571739
 20
989800153.9501414
 10
4999896.07871459
 20
989800153.9691419
 10
4999896.16200033
 20
989800153.9952844
 10
4999896.242571673
 20
989800154.0287133
 10
4999896.320000321
 20
989800154.0689987
 10
4999896.393571697
 20
989800154.1158562
 10
4999896.462714616
 20
989800154.1689987
 10
4999896.527143151
 20
989800154.2278562
 10
4999896.586000353
 20
989800154.2921418
 10
4999896.63914317
 20
989800154.3614276
 10
4999896.686000256
 20
989800154.4349988
 10
4999896.726286015
 20
989800154.5124275
 10
4999896.759714512
 20
989800154.5929988
 10
4999896.78585745
 20
989800154.6761415
 10
4999896.804714486
 20
989800154.7614274
 10
4999896.816143079
 20
989800154.8478561
 10
4999896.820000352
 20
989800154.934999
  0
LWPOLYLINE
  5
11E3
330
1E
100
AcDbEntity
  8
0
  6
C6CONTINUOUS
 62
     7
100
AcDbPolyline
 90
       37
 70
     0
 43
0.0
 10
4999884.810000332
 20
989800154.934999
 10
4999884.813714553
 20
989800154.8478561
 10
4999884.825143147
 20
989800154.7614274
 10
4999884.844143235
 20
989800154.6761415
 10
4999884.870286003
 20
989800154.5929988
 10
4999884.90371467
 20
989800154.5124275
 10
4999884.944000257
 20
989800154.4349988
 10
4999884.990714631
 20
989800154.3614276
 10
4999885.044000331
 20
989800154.2921418
 10
4999885.102857533
 20
989800154.2278562
 10
4999885.167143187
 20
989800154.1689987
 10
4999885.236428987
 20
989800154.1158562
 10
4999885.310000363
 20
989800154.0689987
 10
4999885.387428839
 20
989800154.0287133
 10
4999885.468000353
 20
989800153.9952844
 10
4999885.551143214
 20
989800153.9691419
 10
4999885.636428945
 20
989800153.9501414
 10
4999885.722714672
 20
989800153.9388559
 10
4999885.810000393
 20
989800153.9349989
 10
4999885.897143236
 20
989800153.9388559
 10
4999885.983571844
 20
989800153.9501414
 10
4999886.068714693
 20
989800153.9691419
 10
4999886.152000263
 20
989800153.9952844
 10
4999886.232571778
 20
989800154.0287133
 10
4999886.310000255
 20
989800154.0689987
 10
4999886.3835718
 20
989800154.1158562
 10
4999886.452714548
 20
989800154.1689987
 10
4999886.517143253
 20
989800154.2278562
 10
4999886.576000286
 20
989800154.2921418
 10
4999886.629143106
 20
989800154.3614276
 10
4999886.67600036
 20
989800154.4349988
 10
4999886.716286117
 20
989800154.5124275
 10
4999886.749714617
 20
989800154.5929988
 10
4999886.775857553
 20
989800154.6761415
 10
4999886.794714591
 20
989800154.7614274
 10
4999886.806143183
 20
989800154.8478561
 10
4999886.810000283
 20
989800154.934999
  0
LWPOLYLINE
  5
120A
330
1E
100
AcDbEntity
  8
0
  6
C6CONTINUOUS
 62
     7
100
AcDbPolyline
 90
       19
 70
     0
 43
0.0
 10
4999904.830000295
 20
989800154.934999
 10
4999904.833714515
 20
989800154.8478561
 10
4999904.84514311
 20
989800154.7614274
 10
4999904.864000147
 20
989800154.6761415
 10
4999904.890285965
 20
989800154.5929988
 10
4999904.923714463
 20
989800154.5124275
 10
4999904.964000221
 20
989800154.4349988
 10
4999905.010714424
 20
989800154.3614276
 10
4999905.064000293
 20
989800154.2921418
 10
4999905.122857327
 20
989800154.2278562
 10
4999905.187143149
 20
989800154.1689987
 10
4999905.25642878
 20
989800154.1158562
 10
4999905.330000157
 20
989800154.0689987
 10
4999905.407428803
 20
989800154.0287133
 10
4999905.488000147
 20
989800153.9952844
 10
4999905.571143007
 20
989800153.9691419
 10
4999905.656428738
 20
989800153.9501414
 10
4999905.742714465
 20
989800153.9388559
 10
4999905.828285957
 20
989800153.9349989
  0
LWPOLYLINE
  5
121F
330
1E
100
AcDbEntity
  8
0
  6
C6CONTINUOUS
 62
     7
100
AcDbPolyline
 90
       20
 70
     0
 43
0.0
 10
4999875.798286097
 20
989800153.9349989
 10
4999875.800000327
 20
989800153.9349989
 10
4999875.887143168
 20
989800153.9388559
 10
4999875.973571778
 20
989800153.9501414
 10
4999876.058714626
 20
989800153.9691419
 10
4999876.142000368
 20
989800153.9952844
 10
4999876.222571881
 20
989800154.0287133
 10
4999876.300000358
 20
989800154.0689987
 10
4999876.373571903
 20
989800154.1158562
 10
4999876.442714653
 20
989800154.1689987
 10
4999876.507143186
 20
989800154.2278562
 10
4999876.566000389
 20
989800154.2921418
 10
4999876.619143209
 20
989800154.3614276
 10
4999876.666000463
 20
989800154.4349988
 10
4999876.706286051
 20
989800154.5124275
 10
4999876.739714721
 20
989800154.5929988
 10
4999876.765857486
 20
989800154.6761415
 10
4999876.784714693
 20
989800154.7614274
 10
4999876.796143287
 20
989800154.8478561
 10
4999876.800000389
 20
989800154.934999
  0
LINE
  5
1235
330
1E
100
AcDbEntity
  8
0
  6
C6CONTINUOUS
 62
     7
100
AcDbLine
 10
4999838.800000583
 20
989800155.9349989
 30
0.0
 11
4999838.800000583
 21
989800154.4349988
 31
0.0
  0
LWPOLYLINE
  5
1236
330
1E
100
AcDbEntity
  8
0
  6
C6CONTINUOUS
 62
     7
100
AcDbPolyline
 90
       37
 70
     0
 43
0.0
 10
4999839.800000645
 20
989800166.434999
 10
4999839.712857803
 20
989800166.431142
 10
4999839.626429197
 20
989800166.4198561
 10
4999839.541143464
 20
989800166.400856
 10
4999839.458000606
 20
989800166.3747132
 10
4999839.377429262
 20
989800166.3412843
 10
4999839.300000615
 20
989800166.3009988
 10
4999839.226429239
 20
989800166.2541416
 10
4999839.157143438
 20
989800166.2009988
 10
4999839.092857786
 20
989800166.1421416
 10
4999839.034000583
 20
989800166.0778561
 10
4999838.980857764
 20
989800166.0085704
 10
4999838.93400068
 20
989800165.9349986
 10
4999838.893714922
 20
989800165.8575703
 10
4999838.860286253
 20
989800165.7769988
 10
4999838.834143486
 20
989800165.6938559
 10
4999838.815143399
 20
989800165.6085703
 10
4999838.803857685
 20
989800165.5221415
 10
4999838.800000583
 20
989800165.4349988
 10
4999838.803857685
 20
989800165.347856
 10
4999838.815143399
 20
989800165.2614276
 10
4999838.834143486
 20
989800165.1761417
 10
4999838.860286253
 20
989800165.0929987
 10
4999838.893714922
 20
989800165.0124273
 10
4999838.93400068
 20
989800164.9349989
 10
4999838.980857764
 20
989800164.8614274
 10
4999839.034000583
 20
989800164.7921415
 10
4999839.092857786
 20
989800164.7278556
 10
4999839.157143438
 20
989800164.6689989
 10
4999839.226429239
 20
989800164.6158563
 10
4999839.300000615
 20
989800164.5689987
 10
4999839.377429262
 20
989800164.5287127
 10
4999839.458000606
 20
989800164.4952843
 10
4999839.541143464
 20
989800164.4691415
 10
4999839.626429197
 20
989800164.4501416
 10
4999839.712857803
 20
989800164.4388561
 10
4999839.800000645
 20
989800164.434999
  0
LWPOLYLINE
  5
125D
330
1E
100
AcDbEntity
  8
0
  6
C6CONTINUOUS
 62
     7
100
AcDbPolyline
 90
       19
 70
     0
 43
0.0
 10
4999839.300000615
 20
989800156.4349989
 10
4999839.256429108
 20
989800156.4331416
 10
4999839.213143535
 20
989800156.4274276
 10
4999839.170572022
 20
989800156.417999
 10
4999839.12900068
 20
989800156.4048561
 10
4999839.088714922
 20
989800156.3881416
 10
4999839.050000684
 20
989800156.3679988
 10
4999839.013143556
 20
989800156.3445703
 10
4999838.978572011
 20
989800156.3179988
 10
4999838.946429268
 20
989800156.2885703
 10
4999838.917000583
 20
989800156.2564273
 10
4999838.890429175
 20
989800156.2218562
 10
4999838.867000632
 20
989800156.1849989
 10
4999838.846857838
 20
989800156.1462846
 10
4999838.830143503
 20
989800156.105999
 10
4999838.81700068
 20
989800156.0644274
 10
4999838.807572076
 20
989800156.021856
 10
4999838.801857693
 20
989800155.9785702
 10
4999838.800000583
 20
989800155.9349989
  0
MTEXT
  5
167F
330
1E
100
AcDbEntity
  8
寸法
100
AcDbMText
 10
4999952.343828646
 20
989800075.1306584
 30
0.0
 40
5.0
 41
0.0
 71
     1
 72
     1
  1
{\fMS UI Gothic|b0|i0|c128|p49;\U+203B締付トルク\P　 M4端子         1.5N ・ ｍ（ＭＡＸ）\P\fMS UI Gothic|b0|i0|c128|p17;　 M5端子         2.0N ・ ｍ（ＭＡＸ）\P\fMS UI Gothic|b0|i0|c128|p49;　 本体ケース   　1.5N ・ ｍ（ＭＡＸ）}
 73
     2
 44
1.0
  0
MTEXT
  5
1691
330
1E
100
AcDbEntity
  8
寸法
 62
     5
100
AcDbMText
 10
4999731.506716225
 20
989800109.2488891
 30
0.0
 40
3.0
 41
0.0
 71
     8
 72
     1
  1
{\F.shx,bigfont.shx;2-M5X10}
 73
     2
 44
1.0
  0
LEADER
  5
1692
330
1E
100
AcDbEntity
  8
寸法
 62
     5
100
AcDbLeader
  3
ISO-25
 76
     3
 10
4999702.023710672
 20
989800094.0514322
 30
0.0
 10
4999719.862475727
 20
989800108.9949547
 30
0.0
 10
4999742.232339218
 20
989800108.9949547
 30
0.0
1001
ACAD
1000
DSTYLE
1002
{
1070
    41
1040
0.5
1070
   341
1005
16A0
1070
   140
1040
2.0
1002
}
  0
MTEXT
  5
1693
330
1E
100
AcDbEntity
  8
寸法
 62
     5
100
AcDbMText
 10
4999729.438223353
 20
989800121.7210616
 30
0.0
 40
3.0
 41
0.0
 71
     8
 72
     1
  1
{\F.shx,bigfont.shx;2-φ4.6}
 73
     2
 44
1.0
  0
LEADER
  5
1694
330
1E
100
AcDbEntity
  8
寸法
 62
     5
100
AcDbLeader
  3
ISO-25
 76
     3
 10
4999707.115091176
 20
989800108.5772069
 30
0.0
 10
4999720.516491721
 20
989800121.4671273
 30
0.0
 10
4999739.4396667
 20
989800121.4671273
 30
0.0
1001
ACAD
1000
DSTYLE
1002
{
1070
    41
1040
0.5
1070
   341
1005
16A0
1070
   140
1040
2.0
1002
}
  0
LEADER
  5
1695
330
1E
100
AcDbEntity
  8
寸法
 62
     5
100
AcDbLeader
  3
ISO-25
 76
     3
 10
4999698.486845303
 20
989800028.7299245
 30
0.0
 10
4999719.862475727
 20
989800016.3616156
 30
0.0
 10
4999740.367369557
 20
989800016.3616156
 30
0.0
1001
ACAD
1000
DSTYLE
1002
{
1070
    41
1040
0.5
1070
   341
1005
16A0
1070
   140
1040
2.0
1002
}
  0
MTEXT
  5
1696
330
1E
100
AcDbEntity
  8
寸法
 62
     5
100
AcDbMText
 10
4999732.256882538
 20
989800008.1340605
 30
0.0
 40
3.0
 41
0.0
 71
     8
 72
     1
  1
{\F.shx,bigfont.shx;2-4.6X5.6}
 73
     2
 44
1.0
  0
LEADER
  5
1697
330
1E
100
AcDbEntity
  8
寸法
 62
     5
100
AcDbLeader
  3
ISO-25
 76
     3
 10
4999707.462466777
 20
989800015.3559539
 30
0.0
 10
4999719.862475727
 20
989800007.8801263
 30
0.0
 10
4999745.034575684
 20
989800007.8801263
 30
0.0
1001
ACAD
1000
DSTYLE
1002
{
1070
    41
1040
0.5
1070
   341
1005
16A0
1070
   140
1040
2.0
1002
}
  0
MTEXT
  5
1698
330
1E
100
AcDbEntity
  8
寸法
 62
     5
100
AcDbMText
 10
4999729.939569537
 20
989800016.6155501
 30
0.0
 40
3.0
 41
0.0
 71
     8
 72
     1
  1
{\F.shx,bigfont.shx;2-M4X8}
 73
     2
 44
1.0
  0
MTEXT
  5
16AC
330
1E
100
AcDbEntity
  8
外形
100
AcDbMText
 10
4999633.522605622
 20
989800270.669891
 30
0.0
 40
17.5
 41
106.1407291572497
 71
     5
 72
     5
  1
{\fMS UI Gothic|b0|i0|c128|p17;外形寸法}
 73
     1
 44
1.0
  0
ENDSEC
  0
SECTION
  2
OBJECTS
  0
DICTIONARY
  5
C
330
0
100
AcDbDictionary
281
     1
  3
ACAD_GROUP
350
D
  3
ACAD_LAYOUT
350
19
  3
ACAD_MLINESTYLE
350
16
  3
ACAD_PLOTSETTINGS
350
18
  3
ACAD_PLOTSTYLENAME
350
E
  0
DICTIONARY
  5
D
102
{ACAD_REACTORS
330
C
102
}
330
C
100
AcDbDictionary
281
     1
  3
*A1
350
1675
  3
*A2
350
1680
  3
*A3
350
1681
  3
*A4
350
1682
  3
*A5
350
1683
  3
*A6
350
1684
  0
DICTIONARY
  5
19
102
{ACAD_REACTORS
330
C
102
}
330
C
100
AcDbDictionary
281
     1
  3
Model
350
21
  3
ﾚｲｱｳﾄ1
350
1D
  0
DICTIONARY
  5
16
102
{ACAD_REACTORS
330
C
102
}
330
C
100
AcDbDictionary
281
     1
  3
Standard
350
17
  0
DICTIONARY
  5
18
102
{ACAD_REACTORS
330
C
102
}
330
C
100
AcDbDictionary
281
     1
  0
ACDBDICTIONARYWDFLT
  5
E
102
{ACAD_REACTORS
330
C
102
}
330
C
100
AcDbDictionary
281
     1
  3
Normal
350
F
100
AcDbDictionaryWithDefault
340
F
  0
GROUP
  5
1675
102
{ACAD_REACTORS
330
D
102
}
330
D
100
AcDbGroup
300

 70
     1
 71
     1
340
877
340
878
340
879
  0
GROUP
  5
1680
102
{ACAD_REACTORS
330
D
102
}
330
D
100
AcDbGroup
300

 70
     1
 71
     1
340
73C
340
73B
  0
GROUP
  5
1681
102
{ACAD_REACTORS
330
D
102
}
330
D
100
AcDbGroup
300

 70
     1
 71
     1
340
690
340
68F
  0
GROUP
  5
1682
102
{ACAD_REACTORS
330
D
102
}
330
D
100
AcDbGroup
300

 70
     1
 71
     1
340
689
340
688
  0
GROUP
  5
1683
102
{ACAD_REACTORS
330
D
102
}
330
D
100
AcDbGroup
300

 70
     1
 71
     1
340
697
340
696
  0
GROUP
  5
1684
102
{ACAD_REACTORS
330
D
102
}
330
D
100
AcDbGroup
300

 70
     1
 71
     1
340
6A4
340
6A3
340
6A2
  0
LAYOUT
  5
21
102
{ACAD_REACTORS
330
19
102
}
330
19
100
AcDbPlotSettings
  1

  2
EPSON LP-7100
  4

  6

 40
0.0
 41
0.0
 42
0.0
 43
0.0
 44
0.0
 45
0.0
 46
0.0
 47
0.0
 48
0.0
 49
0.0
140
0.0
141
0.0
142
1.0
143
1.0
 70
 11952
 72
     0
 73
     1
 74
     0
  7

 75
     0
147
1.0
148
-126990597.2564447
149
-25140919110.23168
100
AcDbLayout
  1
Model
 70
     1
 71
     0
 10
0.0
 20
0.0
 11
12.0
 21
9.0
 12
0.0
 22
0.0
 32
0.0
 14
0.0
 24
0.0
 34
0.0
 15
0.0
 25
0.0
 35
0.0
146
0.0
 13
0.0
 23
0.0
 33
0.0
 16
1.0
 26
0.0
 36
0.0
 17
0.0
 27
1.0
 37
0.0
 76
     0
330
1E
  0
LAYOUT
  5
1D
102
{ACAD_REACTORS
330
19
102
}
330
19
100
AcDbPlotSettings
  1

  2
EPSON LP-7100
  4

  6

 40
0.0
 41
0.0
 42
0.0
 43
0.0
 44
0.0
 45
0.0
 46
0.0
 47
0.0
 48
0.0
 49
0.0
140
0.0
141
0.0
142
1.0
143
1.0
 70
   688
 72
     0
 73
     0
 74
     5
  7

 75
    16
147
1.0
148
0.0
149
0.0
100
AcDbLayout
  1
ﾚｲｱｳﾄ1
 70
     1
 71
     1
 10
0.0
 20
0.0
 11
12.0
 21
9.0
 12
0.0
 22
0.0
 32
0.0
 14
1.000000000000000E+20
 24
1.000000000000000E+20
 34
1.000000000000000E+20
 15
-1.000000000000000E+20
 25
-1.000000000000000E+20
 35
-1.000000000000000E+20
146
0.0
 13
0.0
 23
0.0
 33
0.0
 16
1.0
 26
0.0
 36
0.0
 17
0.0
 27
1.0
 37
0.0
 76
     0
330
1A
  0
MLINESTYLE
  5
17
102
{ACAD_REACTORS
330
16
102
}
330
16
100
AcDbMlineStyle
  2
STANDARD
 70
     0
  3

 62
   256
 51
90.0
 52
90.0
 71
     2
 49
0.5
 62
   256
  6
BYLAYER
 49
-0.5
 62
   256
  6
BYLAYER
  0
ACDBPLACEHOLDER
  5
F
102
{ACAD_REACTORS
330
E
102
}
330
E
  0
ENDSEC
  0
EOF
